» » »

Flobots, Handlebars Tabs (ver.4)

Artists:  A B C D E F G H I J K L M N O P Q R S T U V W X Y Z # 

Handlebars Tabs (ver.4)

Flobots Tabs
 Rating:
4/5 (10 votes)
Handlebars lessons Tabs too difficult? Try these video lessons and learn fast
                -------------------------------------------------------------------------------
-------------------------------------------------------------------------------
Tuning: Standard EADGBe

     Guitar 1 (Played throughout the whole song)
e|-----------5---------------------------------------------------------------|
B|-------6-------6-----------5-------------------6-------5---8---5-----------|
G|---7-------------------5-------5-----------7-------5-----------------------|
D|-------------------7-------------------8-----------------------------------|
A|-----------------------------------8---------------------------------------|
E|---------------------------------------------------------------------------|

e|---------------6-------6--10---6-------5---8---5-----------5---------------|
B|-----------6-------8---------------6---------------5---8----------(7)------|
G|-------7-------------------------------------------------------7-----------|
D|---8-----------------------------------------------------------------------|
A|---------------------------------------------------------------------------|
E|---------------------------------------------------------------------------|

    
Guitar 2 distorted (played lightly on the second verse, harder on the third verse)


e|---------------------------------------------------------------------------|
B|---------------------------------------------------------------------------|
G|---7-----------------------------------------------5-----------------------|
D|---7---------------7---------------3---------------5-----------------------|
A|---5---------------7---------------3---------------3-----------------------|
E|-------------------5---------------1---------------------------------------|

e|---------------------------------------------------------------------------|
B|---------------------------------------------------------------------------|
G|---3-----------------------------------------------------------------------|
D|---3---------------5---------------3---------------2-----------------------|
A|---1---------------5---------------3---------------2-----------------------|
E|-------------------3---------------1---------------0-----------------------|
            
Submit corrections

comments powered by Disqus
↑ Back to top | Flobots Tabs for Handlebars. Lyrics for acoustic guitar and electric guitar. Tablatures and chords are parodies/interpretations of the original songs. You may use it for private study, scholarship, research or language learning purposes only