» » »

Anne Braden Bass tabs (ver.1)

Artists:  A B C D E F G H I J K L M N O P Q R S T U V W X Y Z # 

Anne Braden Bass tabs (ver.1)

Flobots
Rating:
4/5 (1 vote)

Tabs too difficult? Try these video lessons and learn fast.
                
The other tabs that are up aren't bad, they just aren't completely right. This tab 
should be completely right.

Intro: Playing note- let that 3 on the A string ring out when you play the octave
                                                                  
                                                                          2x
G|---5---------3----30------5--------3----35--------------------------------|
D|-----------01-1~----1------------01-13/5----------------------------------|
A|--3~-5-55----------------3~-5-55------------------------------------------|
E|--------------------------------------------------------------------------|

Verse:                                                                     3x         

G|---5---------3----30------5--------3----35--------------------------------|
D|-----------01-1~----1------------01-13/5----------------------------------|
A|--3~-5-55----------------3~-5-55------------------------------------------|
E|--------------------------------------------------------------------------|

G|---5---------3----30------5-----------------------------------------------|
D|-----------01-1~----1------------1----------------------------------------|
A|--3~-5-55----------------3~-5-55------------------------------------------|
E|--------------------------------------------------------------------------|

Chorus: Note- Right after you hit the 6 on the E string, go directly into the verse

G|---5---------3----30------5--------3----35--------------------------------|
D|-----------01-1~----1------------01-13/5----------------------------------|
A|--3~-5-55----------------3~-5-55------------------------------------------|
E|--------------------------------------------------------------------------|

G|---5---------3----30------5-----------------------------------------------|
D|-----------01-1~----1-----------------------------------------------------|
A|--3~-5-55----------------3~-5-55---363------------------------------------|
E|---------------------------------36---636---------------------------------|

Verse: Note the variation on the second time you play the riff, same as before

G|---5---------3----30------5--------3----35--------------------------------|
D|-----------01-1~----1------------01-13/5----------------------------------|
A|--3~-5-55----------------3~-5-55------------------------------------------|
E|--------------------------------------------------------------------------|

G|---5---------3----30------5-----------------------------------------------|
D|-----------01-1~----1------------1----------------------------------------|
A|--3~-5-55----------------3~-5-55------------------------------------------|
E|--------------------------------------------------------------------------|

G|---5---------3----30------5--------3----35--------------------------------|
D|-----------01-1~----1------------01-13/5----------------------------------|
A|--3~-5-55----------------3~-5-55------------------------------------------|
E|--------------------------------------------------------------------------|

G|---5---------3----30------5--------3----35--------------------------------|
D|-----------01-1~----1------------01-13/5----------------------------------|
A|--3~-5-55----------------3~-5-55------------------------------------------|
E|--------------------------------------------------------------------------|

rest while the guitar does its thing...

Chorus:
                                                                           2x
G|---5---------3----30------5--------3----35--------------------------------|
D|-----------01-1~----1------------01-13/5----------------------------------|
A|--3~-5-55----------------3~-5-55------------------------------------------|
E|--------------------------------------------------------------------------|

G|---5---------3----30------5-----------------------------------------------|
D|-----------01-1~----1-----------------------------------------------------|
A|--3~-5-55----------------3~-5-55---363------------------------------------|
E|---------------------------------36---636---------------------------------|

Rest some more...

Verse:

G|---5---------3----30------5--------3----35--------------------------------|
D|-----------01-1~----1------------01-13/5----------------------------------|
A|--3~-5-55----------------3~-5-55------------------------------------------|
E|--------------------------------------------------------------------------|

G|---5---------3----30------5-----------------------------------------------|
D|-----------01-1~----1------------1----------------------------------------|
A|--3~-5-55----------------3~-5-55------------------------------------------|
E|--------------------------------------------------------------------------|

Chorus:                                                                    3x

G|---5---------3----30------5--------3----35--------------------------------|
D|-----------01-1~----1------------01-13/5----------------------------------|
A|--3~-5-55----------------3~-5-55------------------------------------------|
E|--------------------------------------------------------------------------|

G|---5---------3----30------5-----------------------------------------------|
D|-----------01-1~----1-----------------------------------------------------|
A|--3~-5-55----------------3~-5-55---363------------------------------------|
E|---------------------------------36---636---------------------------------|

Rest...

Outro:                                                                     3x

G|---5---------3----30------5--------3----35--------------------------------|
D|-----------01-1~----1------------01-13/5----------------------------------|
A|--3~-5-55----------------3~-5-55------------------------------------------|
E|--------------------------------------------------------------------------|

G|---5---------3----30------5-----------------------------------------------|
D|-----------01-1~----1------------1----------------------------------------|
A|--3~-5-55----------------3~-5-55------------------------------------------|
E|--------------------------------------------------------------------------|



| /  slide up
| \  slide down
| h  hammer-on
| p  pull-off
| ~  vibrato
| +  harmonic
| x  Mute note
=============================================================================
            
Tabs too difficult? Try these video lessons and learn fast.




comments powered by Disqus
↑ Back to top | Tablatures and chords are parodies/interpretations of the original songs. You may use it for private study, scholarship, research or language learning purposes only