» » »

Way Of The World Bass tabs (ver.1)

Artists:  A B C D E F G H I J K L M N O P Q R S T U V W X Y Z # 

Way Of The World Bass tabs (ver.1)

Flipper
Rating:
5/5 (1 vote)

Tabs too difficult? Try these video lessons and learn fast.
                Way of the World
Bass tab

very simple little tune, the bass continues the same
riff throughout the song. a guitar is present but
mostly mimicks the bass line w/ little off the cuff
pseudo-jazz bits here and there.


1 ----------------------------------------------|
2 --5-5-5-5-5-5-5-5-----------------------------|
3 --5-5-5-5-5-5-5-5-----------------------------|
4 ---------------------5-5-5-5-5-5-5-5----------|


1 ----------------------------------------------|
2 ----------------------------------------------|
3 --5-5-5-5-5-5-5-5---10-10-10-10-10-10-10-10---|
4 ----------------------------------------------|

1 ---------------------------------------------|
2 ---------------------------------------------|
3 --12-12-12-12-12-12-12-12--8-8-8-8-8-8-7-5---|
4 ---------------------------------------------|
            
Tabs too difficult? Try these video lessons and learn fast.




comments powered by Disqus
↑ Back to top | Tablatures and chords are parodies/interpretations of the original songs. You may use it for private study, scholarship, research or language learning purposes only