» » »

Shed No Tears Bass tabs (ver.1)

Artists:  A B C D E F G H I J K L M N O P Q R S T U V W X Y Z # 

Shed No Tears Bass tabs (ver.1)

Flipper
Rating:
0/5 (0 votes)

Hard to play? Try these video lessons and learn fast.
                Band: Flipper

G|---------------------------------------------------------------------------|
D|---------------------------------------------------------------------------|
A|-0--7--0--7--0-7-5-----------0-7(x3)-0-7(x3)-0-7-5-----------0--5--0--5--0-|
E|-------------------5-6-0-6-5-----------------------5-6-0-6-5---------------|
                                         Drums kick in here|
-----------------------------------------------------------------------------|
-----------------------------------------------------------------------------|
-5-3-----------0-5(x3)-0-5(x3)-0-5-----------0-7(x3)-0-7(x3)-0-7-5-----------|
-----5-6-0-6-5---------------------5-6-0-6-5-----------------------5-6-0-6-5-|

---------------------------------------------------------------------------|
---------------------------------------------------------------------------|
-0-7(x3)-0-7(x3)-0-7-5-----------0-5(x3)-0-5(x3)-0-5-3-----------0-5(x3)-0-|
-----------------------5-6-0-6-5-----------------------5-6-0-6-5-----------|

-----------------------|
-----------------------|
-5(x3)-0-5-3-----------|
-------------5-6-0-6-5-|

EHX Big Muff Pi setting

Volume: Adjust to preference
Tone: 7:00
Sustain: 7:00
            
Hard to play? Try these video lessons and learn fast. | Correct




comments powered by Disqus
↑ Back to top | Tablatures and chords are parodies/interpretations of the original songs. You may use it for private study, scholarship, research or language learning purposes only