>
 >
Living For The Depression

Living For The Depression Guitar Tabs

Flipper - Living For The Depression chords, tabs, tablatures, lyrics

Guitar lessons | Add/correct | Request | Top 50 tabs Artists:  A B C D E F G H I J K L M N O P Q R S T U V W X Y Z 0-9

Living For The Depression Guitar Tabs – Flipper

CD, Sheet music, Poster

Do you like Living For The Depression? Share with your friends now
Tabs
Band: Flipper

Verse
                                                        X4
e||-------------------------------------------||
B||-------------------------------------------||
G||*---------------------9---9-9-9---9-9--*||
D||*-9---9--9-7--7-7-9---9-9-9---9-9--*||
A||--9--9-9-7--7-7-7---7-7-7---7-7---||
E||--7--7--7-5--5-5-----------------------||

Chorus
e||--0----------------0-------------||-0------|
B||--0----------------0-------------||-0------|
G||*-3----------------4------------*||-4------|
D||*-4----------------5------------*||-5------|
A||--4----------------5-------------||-5------|
E||--2----------------3-------------||-3------|


Play the entire form three times.

We're living for life to be the way we feel
Not living for life, but the Death appeal
Who wants a cancerous boring end
When you can die from misery and following the trend?

I say Who cares anyway? Who listens to what I say?
This song rhymes and we play it in time

And if you wanna live in Super Market Isles
And take your vacation by flying for miles
Take a day off and live in the lies
While others work and capitalize

I say Who cares anyway? Who listens to what I say?
This song rhymes and we play it in time

We're living like cockroaches in this place
Sprayed with insecticide that leaves no trace
And if we could crawl on you at night
You could be sure we'd love to bite

I say Who cares anyway? Who listens to what I say?
This song rhymes and we play it in time

I'm not living life to be
A really cheap fucker like you
Copout





Comments


Popular Flipper tabs & chords
Ever Bass Tabs
Life Bass Tabs
Life Is Cheap Bass Tabs
Love Canal Bass Tabs
Sex Bomb Bass Tabs
Shed No Tears Bass Tabs
Why Can't You See Bass Tabs
Ever Tabs
Sex Bomb Tabs
Sex Bomb Baby Tabs


Song lyrics



↑ Back to top | Tablatures and chords are parodies/interpretations of the original songs. You may use it for private study, scholarship, research or language learning purposes only
© 2014 AZChords.com Contact us | Privacy policy | DMCA | Add/correct tabs | Request tabs | Top 50 tabs