» » »

First The Heart Bass tabs (ver.1)

Artists:  A B C D E F G H I J K L M N O P Q R S T U V W X Y Z # 

First The Heart Bass tabs (ver.1)

Flipper
Rating:
0/5 (0 votes)

Hard to play? Try these video lessons and learn fast.
                Not sure what tuning Flipper used, but this is in standard.

The main "verse" riff:
|------------------------|
|-------2-4---------4-3--|
|-0-2---------0-3--------|
|------------------------|

The "chorus" riff:
|-------------------------------------|
|-3-33-3-32-----------5-------3-------|
|----------0-3-33-33-3--2-3-5---0-2-3-|
|-------------------------------------| x2

There are several variations on both throughout the song, listen to it a few times to 
the idea.
            
Hard to play? Try these video lessons and learn fast. | Correct




comments powered by Disqus
↑ Back to top | Tablatures and chords are parodies/interpretations of the original songs. You may use it for private study, scholarship, research or language learning purposes only