>
 >
World Keep On Turning

World Keep On Turning Guitar Tabs

Fleetwood Mac - World Keep On Turning chords, tabs, tablatures, lyrics

Guitar lessons | Add/correct | Request | Top 50 tabs Artists:  A B C D E F G H I J K L M N O P Q R S T U V W X Y Z 0-9

World Keep On Turning Guitar Tabs – Fleetwood Mac

CD, Sheet music, Poster

Do you like World Keep On Turning? Share with your friends now
Tabs
#------------------------------------------------------------------------------##

                              WORLD KEEP ON TURNING
                   As recorded by Peter Green's Fleetwood Mac
                (From the 1968 Album PETER GREEN'S FLEETWOOD MAC)

Hi guys, I got emad to get this from a powertab and thought everyone should see it 
cause its an awesome tab for an awesome song. Thanks go to emad.

Words and Music by Peter Green

Gtr I (E A D G B E) - 'Untitled'

 Intro
  Q.=90
  E                                      E5
 12/8
  Gtr I
  a Q     a E    a Q     E E E E E E E   q  E Q  E Q  E Q  E
|--------------------------------------|---------------------|
|--------------------------------------|---------------------|
|--------------------------------------|---------------------|
|-0-2tr0--0-2tr0-0-2tr0----------------|---------------------|
|------------------------0-------0---0-|-2----x----x-------0-|
|--------------------------3-0-3---3-0-|-0--0-x--0-x--0-3----|


                        E
                                       |-3-|
  q  E Q  E Q  E Q  E   Q  E E E E E E S S S E E E
|---------------------|-----------------------------|
|---------------------|-----------------------------|
|---------------------|-----------------------------|
|---------------------|------------0----------------|
|-2----x----x-------0-|-x------0-2---0-0h2p0---0----|
|-0--0-x--0-x--0-3----|-x--0-3---------------3---3--|


                          Verse 1
  E5
  a Q  E Q  E Q  E Q.      q  E q  E q  E Q  E
|-----------------------||---------------------|
|-----------------------||---------------------|
|-----------------------||---------------------|
|-0h2-------------------||---------------------|
|------2-x----x---------||-2----2----2----x----|
|------0-x--0-x--0-3----||-0--0-0--0-0--0-x--3-|


                        E
                                       |-3-|
  q  E q  E q  E q  E   Q  E E E E E E S S S E a E a E
|---------------------|--------------------------------|
|---------------------|--------------------------------|
|---------------------|--------------------------------|
|---------------------|------------0---------------0h2-|
|-2----2----2----2----|-x------0-2-2-2-0h2p0---0h2-----|
|-0--0-0--0-0--0-0--0-|-x--0-3---------------3---------|


  E5
  Q  E Q  E Q  E Q  E   Q  E Q  E Q  E q  E
|---------------------|---------------------|
|---------------------|---------------------|
|---------------------|---------------------|
|---------------------|---------------------|
|-x----x----x----x----|-x----x----x----0----|
|-x--0-x--0-x--0-x--0-|-x--0-x--0-x--3----3-|


                        E
                                       |-3-|
  q  E Q  E Q  E Q  E   Q  E E E E E E S S S E a E a E
|---------------------|--------------------------------|
|---------------------|--------------------------------|
|---------------------|--------------------------------|
|---------------------|------------0---------------0h2-|
|-2----x----x----x----|-x------0-2-2-2-0h2p0---0h2-----|
|-0--0-x--0-x--0-x--0-|-x--0-3---------------3---------|


  E5
  Q  E Q  E Q  E Q  E   Q  E Q  E Q  E q  E
|---------------------|---------------------|
|---------------------|---------------------|
|---------------------|---------------------|
|---------------------|---------------------|
|-x----x----x----x----|-x----x----x----0----|
|-x--0-x--0-x--0-x--0-|-x--0-x--0-x--3----3-|


                        E
                                       |-3-|
  Q  E Q  E Q  E Q  E   Q  E E E E E E S S S E a E a E
|---------------------|--------------------------------|
|---------------------|--------------------------------|
|---------------------|--------------------------------|
|-2-------------------|------------0---------------0h2-|
|------x----x----x----|-x------0-2-2-2-0h2p0---0h2-----|
|----0-x--0-x--0-x--0-|-x--0-3---------------3---------|


 Verse 2
  E5
  Q  E Q  E Q  E Q  E   Q  E Q  E q  E q  E
|---------------------|---------------------|
|---------------------|---------------------|
|---------------------|---------------------|
|---------------------|---------------------|
|-2----x----x----x----|-x----x----0----0----|
|-0--0-x--0-x--0-x--0-|-x--0-x--3----3----3-|


                        E
                                       |-3-|
  Q  E Q  E Q  E Q  E   Q  E E E E E E S S S E a E a E
|---------------------|--------------------------------|
|---------------------|--------------------------------|
|---------------------|--------------------------------|
|-2-------------------|------------0---------------0h2-|
|------x----x----x----|-x------0-2-2-2-0h2p0---0h2-----|
|----0-x--0-x--0-x--0-|-x--0-3---------------3---------|


  E5
                       9/8              12/8
  Q  E Q  E Q  E Q  E   Q  E Q  E q  E   W.
|---------------------|----------------|-------|
|---------------------|----------------|-------|
|---------------------|----------------|-------|
|---------------------|----------------|-2-----|
|-x----x----x----x----|-x----x----0----|-------|
|-x--0-x--0-x--0-x--0-|-x--x-x--3----3-|-------|


  E                        E5
                                                9/8
  Q  E E E E E E E E E E   Q  E q  E q  E q  E   q  E q  E Q  E
|------------------------|---------------------|-----------------|
|------------------------|---------------------|-----------------|
|------------------------|---------------------|-----------------|
|------------------------|-2-------------------|-----------------|
|-x------0-2-0---0-2-0---|------2----2----2----|-2----2-------0--|
|-x--0-3-------3-------3-|----x-0--0-0--0-0--0-|-0--0-0--0-3-----|


                        E
 12/8
                                       |-3-|
  q  E Q  E q  E q  E   Q  E E E E E E S S S E a E a E
|---------------------|--------------------------------|
|---------------------|--------------------------------|
|---------------------|--------------------------------|
|---------------------|------------0---------------0h2-|
|-2----x----x----x----|-x------0-2-2-2-0h2p0---0h2-----|
|-0--0-x--0-x--0-x--0-|-x--0-3---------------3---------|


 Guitar Break
 15/8                                     12/8
       |-4:6-| |--4:6--| |-4:6-| |-4:6-|                  |-3-|
  Q  E S S S S S S S T T S S S S S S S S   Q  E E E E E E S S S E a E a E
|--------0-------------------------------|--------------------------------|
|------3-0-------------------------------|--------------------------------|
|----------3-2-0-2-0-3p2p0-3-0-2-0-2-0---|--------------------------------|
|----------------------------------------|------------0---------------0h2-|
|-x--0---------------------------------0-|-x------0-2-2-2-0h2p0---0h2-----|
|-x--0-----------------------------------|-x--0-3---------------3---------|


       E7
                          6/8             9/8
  Q  E E E E E E E E E E   E E E a E E E   E E E E E E E.S E
|------0-0-0-0-0-0-0-0-0-|-0-0-0---0-0-0-|-0-0-0-0-0-0-------|
|----0-2-3-3-3-3-3-3-3-3-|-3-3-3-2h3-3-3-|-3-3-3-3-3-3-------|
|------------------------|---------------|-------------2p0---|
|------------------------|---------------|-----------------2-|
|-0----------------------|---------------|-------------------|
|-0--0-0-0-0-0-0-0-0-0-0-|-0-0-0---0-0-0-|-0-0-0-0-0-0-------|


  E
 12/8
           |-4:6-| |-4:6-|                          |-3-|
  Q  E a a S S S S S S S S E S S E   Q  E E E E E E S S S E a E a E
|----------4-0---0-----------------|--------------------------------|
|--------x-----3---3-0-------------|--------------------------------|
|------x---------------3-2-0-2p0---|--------------------------------|
|--------------------------------2-|------------0---------------0h2-|
|-x--------------------------------|-x------0-2-2-2-0h2p0---0h2-----|
|-x--0-----------------------------|-x--0-3---------------3---------|


  E5
  Q  E Q  E Q  E Q  E   Q  E Q  E Q  E E E E   E Q  Q  E Q  E Q  E
|---------------------|----------------------|----------------------|
|---------------------|----------------------|----------------------|
|---------------------|----------------------|----------------------|
|---------------------|-2--------------------|---2------------------|
|-x----x----x-------0-|-----------x----0-1-0-|------x----x-------0--|
|-x--0-x--0-x--0-3----|----0-x--3-x--0-------|-3----x--0-x--0-3-----|


 Verse 3
                                            E
                                                           |-3-|
  Q  E Q  E Q  E Q  E   a a W.              Q  E E E E E E S S S E a E a E
|---------------------|-------------------|--------------------------------|
|---------------------|-------------------|--------------------------------|
|---------------------|-------------------|--------------------------------|
|---------------------|-----2-------------|------------0---------------0h2-|
|-x----x----x----x----|---x---------------|-x------0-2-2-2-0h2p0---0h2-----|
|-x--0-x--0-x--0-x--3-|-x-----------------|-x--0-3---------------3---------|


  E5
                       9/8              12/8
  Q  E Q  E Q  E Q  E   Q  E q  E Q  E   W.
|---------------------|----------------|-------|
|---------------------|----------------|-------|
|---------------------|----------------|-------|
|---------------------|----------------|-2-----|
|-x----x----x----x----|-x----0----0----|-------|
|-x--0-x--0-x--0-x--0-|-x--3-0--3-0--3-|-------|


  E                        E5
  Q  E E E E E E E E E E   a a Q  E q  E q  E q  E   q  E Q  E q  E q  E
|------------------------|-------------------------|----------------------|
|------------------------|-------------------------|----------------------|
|------------------------|-------------------------|----------------------|
|------------------------|-----2-------------------|----------------------|
|-x------0-2-0---0-1-0---|---x------2----2----2----|-2----x----0----0-----|
|-x--0-3-------3-------3-|-x------3-0--0-0--0-0--0-|-0--0-x--3-0--3----3--|


                                              Outro
                  E                            E5
                                 |-3-|
  W.              Q  E E E E E E S S S E E E   a a Q  E q  E q  E E E E
|---------------|----------------------------|----------------------------|
|---------------|----------------------------|----------------------------|
|---------------|----------------------------|----------------------------|
|---------------|------------0---------------|-----2---------2----2-2-2---|
|-2-------------|-2------0-2-2-2-0-2-0---0---|---x------2----2----2-2-2---|
|-0-------------|-0--0-3---------------3---3-|-x------0-0--0-0--0-0-0-0---|


  E7
  E E E E E E E E E E E E   a E E E E E E E Q  a E.S E
|-----0-0-0-0-0-0-0-0-0-0-|---0-0-0-0-0-0-0-0-----------|
|-----3-3-3-3-3-3-3-3-3-3-|-1h3-3-3-3-3-3-3-3-----------|
|-------------------------|--------------------3p2p0----|
|-------------------------|-----------------------------|
|-0-0-0-0-0-0-0-0-0-0-0-0-|---0-0-0-0-0-0-0-0-----------|
|-0-0-0-0-0-0-0-0-0-0-0-0-|---0-0-0-0-0-0-0-0--------0--|


  E
       |-4:6-| |-4:6-|                          |-3-|
  q  E S S S S S S S S E S S E   Q  E E E E E E S S S E a E E   W.
|------4-0---0-----------------|------------------------------|-------*|
|----------3---3-0-------------|------------------------------|-------*|
|------------------3-2-0-2p0---|------------------------------|-------*|
|----------------------------2-|------------0-----------------|-2-----*|
|------------------------------|-x------0-2---2-0h2p0---0h2---|-------*|
|-0----------------------------|-x--0-3---------------3-----0-|-------*|


Duration Legend
---------------
W - whole; H - half; Q - quarter; E - 8th; S - 16th; T - 32nd; X - 64th; a - acciaccatura
+ - note tied to previous; . - note dotted; .. - note double dotted
Uncapitalized letters represent notes that are staccato (1/2 duration)
Irregular groupings are notated above the duration line
Duration letters will always appear directly above the note/fret number it represents the
duration for.  Duration letters with no fret number below them represent rests.  Multi-
bar rests are notated in the form Wxn, where n is the number of bars to rest for.  Low
melody durations appear below the staff

Tablature Legend
----------------
 h   - hammer-on
 p   - pull-off
 b   - bend
 pb  - pre-bend
 r   - bend release (if no number after the r, then release immediately)
 /\  - slide into or out of (from/to "nowhere")
 s   - legato slide
 S   - shift slide
  - natural harmonic
[n]  - artificial harmonic
n(n) - tapped harmonic
 ~   - vibrato
 tr  - trill
 T   - tap
 TP  - trem. picking
 PM  - palm muting
\n/  - tremolo bar dip; n = amount to dip
 \n  - tremolo bar down
 n/  - tremolo bar up
/n\  - tremolo bar inverted dip
 =   - hold bend; also acts as connecting device for hammers/pulls
 <>  - volume swell (louder/softer)
 x   - on rhythm slash represents muted slash
 o   - on rhythm slash represents single note slash

Misc Legend
-----------
 |  - bar
||  - double bar
||o - repeat start
o|| - repeat end
*|  - double bar (ending)
 :  - bar (freetime)
 $  - Segno
 &  - Coda
Tempo markers -  = BPM(8/16=s8/s16), where s8 = swing 8ths, s16 = swing 16ths


***************************************************************************************
***************************************************************************************





Comments


Popular Fleetwood Mac tabs & chords
Silver Springs Bass Tabs
Dreams 1 Chords
Go Your Own Way 1 Chords
Second Hand News Chords
Sentimental Lady 1 Chords
Songbird 3 Chords
The Chain Tabs
Thrown Down Tabs
Gold Dust Woman Ukulele
Rhiannon Live Ukulele


Song lyrics



↑ Back to top | Tablatures and chords are parodies/interpretations of the original songs. You may use it for private study, scholarship, research or language learning purposes only
© 2014 AZChords.com Contact us | Privacy policy | DMCA | Add/correct tabs | Request tabs | Top 50 tabs