» » »

Fleetwood Mac, The Chain Mirage Tour Tabs (ver.1)

Artists:  A B C D E F G H I J K L M N O P Q R S T U V W X Y Z # 

The Chain Mirage Tour Tabs (ver.1)

Fleetwood Mac Tabs
Rating:
0/5 (0 votes)
The Chain Mirage Tour lessons Tabs too difficult? Try these video lessons and learn fast
                (Intro)
This song is in standard tuning, tune your 6th string to drop D and capo on the


2nd fret.  This is thumb picking at a brisk tempo!

-----0------------0----------------0---------0-------3p0------------0---------|
---------0---3b-----------------------0--3------------------------------------|
-0-------------------0--3b-3b---0----------------0---------3b---0-------------|


--------------------------3v----------------3---------------------3v----------|
-----------------------------------------------2------------------------2-----|
-----0-----3b--3b----0------------------0---------3p0----------0--------------|
-0-3--------------------------0----3----------------------------------0----3b-|
--------0----------------------------------------------3b---0-----------------|


--------3--------------3---------------3-------------------3-------------3v---|
-3v--------------------------------------2--------------2---------------------|
----0------3b-3b---0----------------0-------------------0-------------0-------|
---------------------------0---3b------------3p0---------------0--------------|
-------------------------------------------------3b--0------------------------|


--------------------------1----------------------------------3b-----1v--------|
----3--------3v------------------3v-----3--------------------3b-----------3---|
-0-----3--0-----------0------0-------0------3p0-----------0------0------------|
------------------------------------------------3p0---------------------------|
-----------------3b---------------------------------3b-0----------------------|


-----------------------------3b-----1-----------------------------------------|
-----------------------------3b-----------3v----------------------------------|
--------------------------------------------------0---------x-----------------|
--0---------0------------0-------0-----0------0------3b--0--------------0-----|
-------3b------------------------------------------------------3--------------|
----------------3b---0----------------------------------------------0---------|


-----------------1---------1---1h3---------------------1--------------1h3-----|
-----------------------2--------------------------2----------2----------------|
------0------0-------------0--------0------0---------0-----------0------------|
-0-------0----------0----------0-------0-------0----------0-----------0-------|
            
Submit corrections

comments powered by Disqus
↑ Back to top | Fleetwood Mac Tabs for The Chain Mirage Tour. Lyrics for acoustic guitar and electric guitar. Tablatures and chords are parodies/interpretations of the original songs. You may use it for private study, scholarship, research or language learning purposes only