» » »

Fleetwood Mac, Landslide Tabs (ver.4)

Artists:  A B C D E F G H I J K L M N O P Q R S T U V W X Y Z # 

Landslide Tabs (ver.4)

Fleetwood Mac Tabs
 Rating:
4/5 (4 votes)
Landslide lessons Tabs too difficult? Try these video lessons and learn fast
                "Landslide" by Steve Nicks / Fleetwood Mac
 -- solo from "The Dance" CD/Movie by Lindsey Buckingham

Tuning : E A D G B E  Time Signature 4/4
Capo 3rd Fret

 C                                G/B
 |       |       |       |        |       |       |       |
|--------------------------------|--------------------------------|
|------------1---------------1---|------------3---------------3---|
|----0---------------0-----------|----0---------------0-----------|
|--------2---------------2-------|--------0---------------0-------|
|3---------------3---------------|2---------------2---------------|
|--------------------------------|--------------------------------|


Am7                               G/B
 |       |       |       |        |       |       |       |
|--------------------------------|--------------------------------|
|------------1---------------1---|------------3---------------3---|
|----0---------------0-----------|----0---------------0-----------|
|--------2---------------2-------|--------0---------------0-------|
|0---------------0---------------|2---------------2---------------|
|--------------------------------|--------------------------------|

C            G/B               Am7   G/B
  I took my love, I took it down
C             G/B                    Am7   G/B
  Climbed a mountain and I turned around
       C         G/B             Am7          G/B
And I saw my reflection in the snow-covered hills
         C           G/B        Am7   Am7 - G/B
Till the landslide brung it down           (Oh,)

    C               G/B         Am7   G/B
Oh, mirror in the sky, what is love?
          C              G/B         Am7    G/B
Can the child within my heart rise above?
      C                G/B      Am7    G/B
Can I sail through the changin' ocean tides?
      C          G/B      Am7   G/B    C   G/B  Am7  G/B
Can I handle the seasons of my li    -  i  -    fe?

Am7                               D7/F#
 |       |       |       |        |       |       |       |
|--------------------------------|--------------------------------|
|------------1---------------1---|3-----------1---------------1---|
|----0---------------0-----------|----2---------------2-----------|
|--------2---------------2-------|--------0---------------0-------|
|0---------------0---------------|--------------------------------|
|--------------------------------|2---------------2---------------|

C    G/B     Am7   D7/F#
  Mm hmm hmm hmm

G                                 D7/F#
 |       |       |       |        |       |       |       |
|------------3-------------------|--------------------------------|
|0-------------------0-----------|------------1-------------------|
|----0---------------------------|2-------------------2-----------|
|--------0---------------0-------|----0-------------------0-------|
|--------------------------------|--------0-----------------------|
|3---------------3---------------|2---------------2---------------|

Em
 |       |       |       |        |       |       |       |
|------------0-------------------|------------0-------------------|
|0-------------------------------|0-------------------------------|
|----0---------------------------|----0---------------------------|
|--------2---------------2-------|--------2---------------2-------|
|----------------2---------------|----------------2---------------|
|0-------------------------------|0-------------------------------|

       G           D7/F#     Em     Em
Well, I've been afraid of changing 'cause I've

C                                 G/B
 |       |       |       |        |       |       |       |
|------------3-------------------|------------3-------------------|
|1-------------------------------|3-------------------------------|
|----0---------------------------|----0---------------------------|
|--------2---------------2-------|--------0---------------0-------|
|3---------------3---------------|2---------------2---------------|
|--------------------------------|--------------------------------|

Am7                               D7/F#
 |       |       |       |        |       |       |       |
|------------3-------------------|--------------------------------|
|1-------------------------------|3-----------1---------------1---|
|----0---------------------------|----2---------------2-----------|
|--------2---------------2-------|--------0---------------0-------|
|0---------------0---------------|--------------------------------|
|--------------------------------|2---------------2---------------|

  C       G/B         Am7   D7/F#
Built my life around you

     G              D7/F#         Em          Em
But time makes you bolder, even children get older
     C           G/B    Am7   Am7 - G/B
And I'm getting older too

(solo, 16 measures)

 |       |       |       |        |       |       |       |
|--------------------------------|--------------------------------|
|------------------------0h--3---|(3 hold)------------------------|
|----------------0h--2-----------|--------------------------------|
|--------0---------------0-------|--------0---------------0-------|
|3---------------3---------------|2---------------2---------------|
|--------------------------------|--------------------------------|

 |       |       |       |        |       |       |       |
|--------------------------------|--------------------------------|
|3//5------------3---------------|0-------------------------------|
|--------------------------------|----------------2-------0-------|
|--------0---------------0-------|--------0---------------0-------|
|0---------------0---------------|2---------------2---------------|
|--------------------------------|--------------------------------|

 |       |       |       |        |       |       |       |
|--------------------------------|--------------------------------|
|--------------------------------|--------------------------------|
|--------------------0---2-------|0-------------------------------|
|--------0---------------0-------|--------0---------------0-------|
|3---------------3---------------|2---------------2h--3-----------|
|--------------------------------|--------------------------------|

 |       |       |       |        |       |       |       |
|----------------------------3---|--------------------2-------0---|
|------------1-------------------|----3---------------------------|
|--------------------0-----------|------------0-------------------|
|--------0---------------0-------|--------0---------------0-------|
|0---------------0---------------|2---------------2---------------|
|--------------------------------|--------------------------------|

 |       |       |       |        |       |       |       |
|--------------------------------|--------------------------------|
|------------------------0h--3---|(3 hold)------------------------|
|----------------0h--2-----------|--------------------------------|
|--------0---------------0-------|--------0---------------0-------|
|3---------------3---------------|2---------------2---------------|
|--------------------------------|--------------------------------|

 |       |       |       |        |       |       |       |
|--------------------------------|--------------------------------|
|3//5------------3---------------|0-------------------------------|
|--------------------------------|----------------2-------0-------|
|--------0---------------0-------|--------0---------------0-------|
|0---------------0---------------|2---------------2---------------|
|--------------------------------|--------------------------------|


 |       |       |       |        |       |       |       |
|--------------------------------|--------------------------------|
|------------------------1-------|0-------------------------------|
|--------------------0-----------|----0---------------------------|
|--------0---------------0-------|--------0---------------0h--2---|
|3---------------3---------------|2---------------2---------------|
|--------------------------------|--------------------------------|

 |       |       |       |        |       |       |       |
|----3---2---3---5---3---2---3---|2---0-------0-------------------|
|--------------------------------|--------3-------3---1---0-------|
|--------------------------------|----------------------------2---|
|--------2---------------2-------|0-----------------------0-------|
|0---------------0---------------|--------0-----------------------|
|--------------------------------|----------------2---------------|


Well, I've been afraid of changing 'cause I've
Built my life around you
But time makes you bolder, even children get older
And I'm getting older too
Oh, I'm getting older too

Ah-ah, take my love, take it down
Ah-ah, Climb a mountain and turn around
And if you see my reflection in the snow-covered hills
Well, a landslide'll bring it down
            C         G/B             Am7         G/B [pause]
And if you see my reflection in the snow-covered hills
        C            G/B       Am7   G/B
Well, a landslide'll bring it down, oh-ohh
     C           G/B       Am7.
The landslide'll bring it down.
            
Submit corrections

comments powered by Disqus
↑ Back to top | Fleetwood Mac Tabs for Landslide. Lyrics for acoustic guitar and electric guitar. Tablatures and chords are parodies/interpretations of the original songs. You may use it for private study, scholarship, research or language learning purposes only