» » »

Fleetwood Mac, I Loved Another Woman Tabs (ver.1)

Artists:  A B C D E F G H I J K L M N O P Q R S T U V W X Y Z # 

I Loved Another Woman Tabs (ver.1)

Fleetwood Mac Tabs
 Rating:
4/5 (4 votes)
I Loved Another Woman lessons Tabs too difficult? Try these video lessons and learn fast
1
                This is a fantastic, bluesy song by fleetwood mac. It was published in 1987 (before they went pop)


Intro:

eb|------------------------------------------------------------------------|
Bb|---------12----------------12(14)-h-o-l-d-b-e-n-d---------12------------|
Gb|-11b(13)-------13b(11)--9-------------------------11b(13)-----13b(11)-9-|
Db|------------------------------------------------------------------------|
Ab|------------------------------------------------------------------------|
Eb|------------------------------------------------------------------------|

eb|-------------------------------------------------------9----------------|
Bb|---------------12---------------12b(14)-------------9-----12-9----------|
Gb|-------11b(13)-------13b(11)-9---------------11b(qt)-------------9-8----|
Db|-11------------------------------------------------------------------11-|
Ab|------------------------------------------------------------------------|
Eb|------------------------------------------------------------------------|

eb|-------------------------------------------------------------------9----|
Bb|-------------------------------------------------------------------9----|
Gb|-------------------------------------------------------------------9----|
Db|-------9------9------9-9-----------9h11-9-------------------------11----|
Ab|--9/11---9/11---8/11------11----11--------11-9-11-7b(qt)----------11----|
Eb|---------------------------------------------------------9~~~~~~--------|

Verse 1:

eb|--9-------------------9--------------------------9----|
Bb|--9-------------------9--------------------------9----|
Gb|--9-------------------9--------------------------9----|
Db|--------------9------11-----------------9-------11----|
Ab|-------11--11---11--------------11--11-----11---------|
Eb|------------------------------------------------------|


eb|---------------------------|---------------------|----------------------|
Bb|---------------------------|---------------------|----------------12----|
Gb|---------------------------|--Cant-Get-This-Bit--|-------------11-------|
Db|-------9-11b(13)-11-9------|---------------------|----------10----------|
Ab|---11-----------------11---|----Repeat-Bar-One---|------11--------------|
Eb|---------------------------|---------------------|----------------------|

Repeat first two bars then:

eb|--9--|
Bb|--9--|
Gb|--9--|
Db|-11--|
Ab|-----|
Eb|-----|

Verse 2:

Play Verse 1 except second bar is;

eb|--------------------------|
Bb|--------------------------|
Gb|-------------9------------|
Db|------9--11------11-9-----|
Ab|--11------------------11--|
Eb|--------------------------|

Listen to CD for when to do appregios

Solo:

e|-------------------------------------------|
B|-------------------------------------------|
G|----10-------------------------------------|
D|-10----12p10-------------------------------|
A|-------------12-12\10--8--10/12-8----------|
E|----------------------------------10~------|

e|---13b(15)--13b(15)--13b(15)--13~-----10----------------------------------|
B|10---------------------------------------10-13-10-------------------------|
G|--------------------------------------------------13-12-10-12-12b(14)-----|
D|----------------------------------------------------------------------12~-|
A|--------------------------------------------------------------------------|
E|--------------------------------------------------------------------------|

e|-----------10--------------------------------10-13-----------------------|
B|--------10----13-10-13-10-----------------11---------11-12~--------------|
G|12b(14)-------------------13-12-10----12-------------------------12b(14)-|
D|-----------------------------------12-------------------------12---------|
A|-------------------------------------------------------------------------|
E|-------------------------------------------------------------------------|

e|-----------------------10--------------------------------|
B|----------------------------------------------------10---|
G|-12b(14)rb(12)--10-------------10-10~---------------10---|
D|-------------------12-------12----------------------12---|
A|----------------------------------------12-----12--------|
E|---------------------------------------------------------|
            
Submit corrections

comments powered by Disqus
↑ Back to top | Fleetwood Mac Tabs for I Loved Another Woman. Lyrics for acoustic guitar and electric guitar. 1 Tablatures and chords are parodies/interpretations of the original songs. You may use it for private study, scholarship, research or language learning purposes only