>
 >
Green Manalishi

Green Manalishi Bass Tabs

Fleetwood Mac - Green Manalishi chords, tabs, tablatures, lyrics

Guitar lessons | Add/correct | Request | Top 50 tabs Artists:  A B C D E F G H I J K L M N O P Q R S T U V W X Y Z 0-9

Green Manalishi Bass Tabs – Fleetwood Mac

CD, Sheet music, Poster

Do you like Green Manalishi? Share with your friends now
Bass Tabs
Peter Green's "The Green Manalishi (with the two-pronged crown)"

   Intro     Riff 1                   Riff 2 "don't wana"  Riff 3
G:---------x-----------------------x--------------------x------------x---|
D:---------x-----------------------x---------2----------x------------x---|
A:-7-5-4-7-x-----------------------x----------02-0--3---x---02-2-0---x---|
E:---------x-000-0035-3-5-3-0(000)-x--3--5------3-21----x--3------32-x---|

   Riff 4                          Riff 5
G:-------------------------------x---4-777-555-4-------------------x-----|
D:-212-555-444-22----------------x-57-----------75-----------------x-----|
A:----------------5533-3-2-3--55-x----------------533-3-2-3--55--7-x-----|
E:-------------------------------x---------------------------------x-----|

   Riff 6                       Riff 7 "trying to keep from"
G:----------------------------x------------------------------------x-----|
D:---5-------7-----5------5---x---------------------------------54-x-----|
A:-7---7-5h7---5h7---7--3---7-x---------------------------32---2---x-----|
E:----------------------------x-3--5------------------------023----x-----|

There are several positions where this could be played.  This is the
one I was comfortable with.

Arrangement:

Intro

Riff 1, Riff 1, Riff 2, Riff 3

Riff 1, Riff 1, Riff 2, Riff 4, Riff 5

Riff 6, Riff 6

Riff 1, Riff 1, Riff 7

Riff 5 to finish.





Comments


Popular Fleetwood Mac tabs & chords
Dragonfly Chords
Gypsy 2 Chords
As Long As You Follow Intro Tabs
Merry Go Round Tabs
Miranda Tabs
My Dream Tabs
Shake Your Money Maker Tabs
Sweet Girl Tabs
Tusk 2 Tabs
Sarah Ukulele


Song lyrics



↑ Back to top | Tablatures and chords are parodies/interpretations of the original songs. You may use it for private study, scholarship, research or language learning purposes only
© 2014 AZChords.com Contact us | Privacy policy | DMCA | Add/correct tabs | Request tabs | Top 50 tabs