» » »

Everywhere 1997 Tabs (ver.2)

Artists:  A B C D E F G H I J K L M N O P Q R S T U V W X Y Z # 

Everywhere 1997 Tabs (ver.2)

Fleetwood Mac
Rating:
0/5 (0 votes)

Hard to play? Try these video lessons and learn fast.
                For the 'triplet' feel I use thumb: 13, index: 15, middle: 17, and ring: 19.
Though the experts of you out there probably can stretch from index to pinky.
Freax.


Tunning: Standard - E A D G B e

     F                  Gm/F                   C                  CIII
1 3 3 2 1 1          x x 3 3 3 3          x 3 2 0 1 0          x 3 5 5 5 3

    Dm                   Bb
x 5 7 7 6 5          x 1 3 3 3 1


Intro:

     |------6-------|  |------6-------|  |------6-------|  |------6-------|
     S  S  S  S  S  S  S  S  S  S  S  S  S  S  S  S  S  S  S  S  S  S  S  S  
||--13----------------13----------------13----------------13-----------------||
||-----15----------15----15----------15----15----------15----15----------15--||
||--------17----17----------17----17----------17----17----------17----17-----||
||-----------19----------------19----------------19----------------19--------||
||---------------------------------------------------------------------------||
||---------------------------------------------------------------------------||


Verse:

||--1--x-1-3-0------|-1--x-1-3-0------|-1--x-1-3-0------|-1--x-1-0-1------||
||--1--x-1-3-1------|-1--x-1-3-1------|-1--x-1-3-1------|-3--x-3-1-3------||
||--2--x-2-3-0------|-2--x-2-3-0------|-2--x-2-3-0------|-2--x-2-0-3------||
||--3--x-3-3-2------|-3--x-3-3-2------|-3--x-3-3-2------|-0--x-0-2-3------||
||--3--x-3---3------|-3--x-3---3------|-3--x-3---3------|--------3-1------||
||--1--x-1---0------|-1--x-1---0------|-1--x-1---0------|--------0--------||


Chorus:

||--3--x-3-x-5--5--|-1--x-1-x-3--3--|-3--x-3-x-5--5--|-1--x-1-x-3----||
||--5--x-5-x-6--6--|-3--x-3-x-5--5--|-5--x-5-x-6--6--|-3--x-3-x-5----||
||--5--x-5-x-7--7--|-3--x-3-x-5--5--|-5--x-5-x-7--7--|-3--x-3-x-5----||
||--5--x-5-x-7--7--|-3--x-3-x-5--5--|-5--x-5-x-7--7--|-3--x-3-x-5----||
||--3--x-3-x-5--5--|-1--x-1-x-3--3--|-3--x-3-x-5--5--|-1--x-1-x-3----||
||-----------------|----------------|----------------|---------------||
            
Hard to play? Try these video lessons and learn fast. | Correct




comments powered by Disqus
↑ Back to top | Tablatures and chords are parodies/interpretations of the original songs. You may use it for private study, scholarship, research or language learning purposes only