» » »

Fleetwood Mac, Caroline Tabs (ver.1)

Artists:  A B C D E F G H I J K L M N O P Q R S T U V W X Y Z # 

Caroline Tabs (ver.1)

Fleetwood Mac Tabs
Rating:
0/5 (0 votes)
Caroline lessons Tabs too difficult? Try these video lessons and learn fast
                -|-------------------------|-----5---5-|--------------------------------------
-|-------------------------|-5-5---5---|--------------------------------------
-|-------2------2-2--5-2-0-|-----------|--0---0-------------------------------
-|-3--5--------------------|-----------|--------------------------------------
-|-------------------------|-----------|--------------------------------------
-|-------------------------|-----------|--------------------------------------
  cont. riffs through verse              last time                 

|--------------------|--------------------------------------------
|--------------------|--------------------------------------------
|--------------------|--------------------------------------------
|--3---5-------------|--------------------------------------------
|--3---5-------------|--------------------------------------------
|--1---3-----1---3---|--------------------------------------------
       Chorus                                                          

-|-------------------------|--------------------------------------------------
-|----5----5---------------|--------------------------------------------------
-|------4------------4-----|--------------------------------------------------
-|--7-----------7--7---7---|--------------------------------------------------
-|-------------------------|--------------------------------------------------
-|-------------------------|--------------------------------------------------
 break                 cont.
            

comments powered by Disqus
↑ Back to top | Fleetwood Mac Tabs for Caroline. Lyrics for acoustic guitar and electric guitar. Tablatures and chords are parodies/interpretations of the original songs. You may use it for private study, scholarship, research or language learning purposes only