» » »

Foggy Mountain Breakdown Tabs (ver.1)

Artists:  A B C D E F G H I J K L M N O P Q R S T U V W X Y Z # 

Foggy Mountain Breakdown Tabs (ver.1)

Flatt & Scruggs
Rating:
0/5 (0 votes)

Hard to play? Try these video lessons and learn fast.
                "This is the very beginning actually done on banjo


E--3-3-3-3---3---3---3----------------------------------------------|
B--0-1-2-3-2h3—2h3—2h3-2h3-2h3-2h3-----------------------2/3333-----|
G----------------------------------2p0-----4-2-0---4-2-0--------2p0-|
D--------------------------------------1/2-------2------------------|
A-------------------------------------------------------------------|
E-------------------------------------------------------------------|

E-----------------------------------------------------|
B-------------------2/3333-----33333333---------------|
G-----4-2-0---4-2-0--------2p0-----------2p0-0-4-2-0--|
D-1/2-------2-----------------------------------------|
A-----------------------------------------------------|
E-----------------------------------------------------|

"            
Hard to play? Try these video lessons and learn fast. | Correct




comments powered by Disqus
↑ Back to top | Tablatures and chords are parodies/interpretations of the original songs. You may use it for private study, scholarship, research or language learning purposes only