» » »

Five Times August, Why Tabs (ver.1)

Artists:  A B C D E F G H I J K L M N O P Q R S T U V W X Y Z # 

Why Tabs (ver.1)

Five Times August Tabs
Rating:
0/5 (0 votes)
Hard to play? Try these video lessons and learn fast.
                This is my own song i made up theres no lyrics so u can take it and fly wit it. its also 
slow paced song so yea
do what u want

---3-^-3--3--~x--3-^-3--3--~x--3-^-3--3--~x--3-^-3--3---|x
---3-^-3--3--~x--3-^-3--3--~x--3-^-3--3--~x--3-^-3--3---|x
---0-^-0--0--~x--0-^-0--0--~x--0-^-0--0--~x--0-^-0--0---|x
---0-^-0--0--~x--0-^-0--0--~x--2-^-2--2--~x--2-^-2--2---|x
---2-^-2--2--~x--0-^-0--0--~x--2-^-2--2--~x--3-^-3--3---|x
---3-^-3--3--~x--2-^-2--2--~x--0-^-0--0--~x--0-^-0--0---|x

----------------------------------------------------------|
----------------------------------------------------------|
---0-^-0--0--~x--0-^-0--0--~x--0-^-0--0--~x--0-^-0--0-----|x
---0-^-0--0--~x--0-^-0--0--~x--2-^-2--2--~x--2-^-2--2-----|x
---2-^-2--2--~x--0-^-0--0--~x--2-^-2--2--~x--3-^-3--3-----|x
---3-^-3--3--~x--2-^-2--2--~x--0-^-0--0--~x--0-^-0--0-----|x

--------------x3~x-----------x3~x-----------x3~x-----------x----|3~x
--------------x3~x-----------x3~x-----------x3~x-----------x----|3~x
---0-^-0--0--~x---0-^-0--0--~x---0-^-0--0--~x---0-^-0--0--~x----|
---0-^-0--0--~x---0-^-0--0--~x---2-^-2--2--~x---2-^-2--2--~x----|
---2-^-2--2--~x---0-^-0--0--~x---2-^-2--2--~x---3-^-3--3--~x----|
---3-^-3--3--~x---2-^-2--2--~x---0-^-0--0--~x---0-^-0--0--~x----|
            

comments powered by Disqus
↑ Back to top | Five Times August Tabs for Why. Lyrics for acoustic guitar and electric guitar. Tablatures and chords are parodies/interpretations of the original songs. You may use it for private study, scholarship, research or language learning purposes only