>
 >
The Good Life

The Good Life Guitar Tabs

Five Times August - The Good Life chords, tabs, tablatures, lyrics

Guitar lessons | Add/correct | Request | Top 50 tabs Artists:  A B C D E F G H I J K L M N O P Q R S T U V W X Y Z 0-9

The Good Life Guitar Tabs – Five Times August

CD, Sheet music, Poster

Do you like The Good Life? Share with your friends now
Tabs
The Good Life by Five Times August
Capo 2nd fret
Opening/Verse
-----------------------------------------------------------|
-----------------------------------------------------------|
--/5--5--9--9----------------------------------------------|
--/5--5----------59/4----2---4---5---5---4----4h5r4--0----|
--/5--5----------5--------2-----------5---5----------------|
-----------------5--------2--------------------------------|

Pre-Chorus
-----------------------------------------------------------|
-----------------------------------------------------------|
---X---- X-----X----X-----X----X----X---X-----11-----------|
---7-----4-----7----12----7----4----7---12----12-----------|
---5-----2-----5----10----5----2----5---10----10-----------|
---5-----2-----5----10----5----2----5---10----10-----------|


Chorus

----------------------------------------------------------------------------|
----------------------------------------------------------------------------|
---7--7--X--7--7--X---------------------------------------------------------|
---7--7--X--5--5--X--5--5--X--5--5--(5)X--2--2--X--2--2--X--5--5-X--7--7--X-|
---5--5--X--5--5--X--5--5--X--5--5--(5)X--2--2--X--2--2--X--5--5-X--5--5--X-|
---------------------3--3--X--3--3--(2)X--0--0--X--0--0--X--3--3-X--5--5--X-|


-----------------------------------------------------------------|
-----------------------------------------------------------------|
---7--7--X--7--7--X----------------------------------------------|
---7--7--X--5--5--X--5--5--X--5--5--(5)X--2--2--X--2--2--X---5~--|
---5--5--X--5--5--X--5--5--X--5--5--(5)X--2--2--X--2--2--X---5~--|
---------------------3--3--X--3--3--(2)X--0--0--X--0--0--X---3~--|


Bridge
-----------------------------------------------------------|
---------------------------------------------------5--5----|
--/5--5--------------------------------------------0--0----|
--/5--5--5--4--5--7--4---2---4---5---------0h4-----4--4----|
--/5--5--------5---------2------------4h5----------5--5----|
---------------5---------2---------------------------------|

2nd Bridge
--------------------|
--------------------|
---7---6---7--------|
---7---7---7--------|
---5---5---5--------|
--------------------|

Intro/Verse
Pre-chorus
Chorus
Verse
Pre-chorus
Chorus
Bridge (4x)
2nd Bridge
Chorus

Figure out the strumming yourself. and done.





Comments


Popular Five Times August tabs & chords
First Time For Everything Chords
Owe It All To You Chords
Perfectly Chords
Better With You Tabs
Love The Way Tabs
Overrated Intro Tabs
Sorry Tabs
Wherever Tabs
Wherever 2 Tabs
Owe It All To You Ukulele


Song lyrics



↑ Back to top | Tablatures and chords are parodies/interpretations of the original songs. You may use it for private study, scholarship, research or language learning purposes only
© 2014 AZChords.com Contact us | Privacy policy | DMCA | Add/correct tabs | Request tabs | Top 50 tabs