» » »

Take Me Away Chords (ver.1)

Artists:  A B C D E F G H I J K L M N O P Q R S T U V W X Y Z # 

Take Me Away Chords (ver.1)

Five Times August
Rating:
0/5 (0 votes)

Hard to play? Try these video lessons and learn fast.
                ---------------------------------------------------------------------------
                      Five Times August - Take Me Away
---------------------------------------------------------------------------
Tuning: standard; capo 2nd fret

note: I only fit the lyrics right to measures when there are big differences in way to
it, not in verses or in chorus! Anyways you got to listen to the song to get the timing
Have fun!

[intro]
e|-----3-------3-------3-------3-------3-------3-------3-------3--|
B|-----3-------3-------3-------3-------3-------3-------3-------3--|
G|-0-0-0-0-0-0-0-0-0-0-0-0-0-0-0---0-0-0-0-0-0-0-0-0-0-0-0-0-0-0--|
D|-0-0-0-0-0-0-0-0-0-0-0-0-0-0-0-0-x-x-0-x-x-x-0-x-x-x-0-x-x-x-0--|
A|-x-x---x-x-x---x-x-x---x-x-x---0-3-3---3-3-3---3-3-3---3-3-3----|
E|-3-3---3-3-3---3-3-3---3-3-3---0-x-x---x-x-x---x-x-x---x-x-x----|

e|-----3-------3-------3-------3-------3-------3-------3-------3--|
B|-----3-------3-------3-------3-------3-------3-------3-------3--|
G|-0-0-0-0-0-0-0-0-0-0-0-0-0-0-0---0-0-0-0-0-0-0-0-0-0-0-0-0-0-0--|
D|-0-0-0-0-0-0-0-0-0-0-0-0-0-0-0-0-x-x-0-x-x-x-0-x-x-x-0-x-x-x-0--|
A|-x-x---x-x-x---x-x-x---x-x-x---0-3-3---3-3-3---3-3-3---3-3-3----|
E|-3-3---3-3-3---3-3-3---3-3-3---0-x-x---x-x-x---x-x-x---x-x-x----|

--------3---------3-------3-------3--|
--------3---------3-------3-------3--|
----x-x-x---x-x-x-x-x-x-x-x-x-x-x-x--|
--0-2-2-2---2-2-2-2-2-2-2-2-2-2-2-2--|
--0-0-0-----0-0-0---0-0-0---0-0-0----|
--0----------------------------------|

[verse]
e|-------3------------3-------3-------3-------3-------3-------3--3--|
B|-------3------------3-------3-------3-------3-------3-------3--3--|
G|-0-0-0-0-0-0-0-0-0-0-0-0-0-0-0-0---0-0-0-0-0-0-0-0-0-0-0-0-0-0-0--|
D|-0-0-0-0-0-0-0-0-0-0-0-0-0-0-0-0-0-x-x-0-x-x-x-0-x-x-x-0-x-x-x-0--|
A|-x-x-x---x-x-x---x-x-x---x-x-x---0-3-3---3-3-3---3-3-3---3-3-3----|
E|-3-3-3---3-3-3---3-3-3---3-3-3---0-x-x---x-x-x---x-x-x---x-x-x----|
It’s killing me, I’ve got to see what’s underneath,
what’s holding me, what’s got me down
It has to be the best of things, I won’t be one to disagree, but it’s way to loud

--------3---------3-------3-------3-------3-------3-------3-------3----|
--------3---------3-------3-------3-------3-------3-------3-------3----|
----x-x-x---x-x-x-x-x-x-x-x-x-x-x-x---0-0-0-0-0-0-0-0-0-0-0-0-0-0-0----|
--0-2-2-2---2-2-2-2-2-2-2-2-2-2-2-2-0-0-0-0-0-0-0-0-0-0-0-0-0-0-0-0----|
--0-0-0-----0-0-0---0-0-0---0-0-0---0-x-x---x-x-x---x-x-x---x-x-x------|
--0---------------------------------0-3-3---3-3-3---3-3-3---3-3-3------|
So take me away
Take me away

e|-------3-------3-------3-------3-----------|
B|-------3-------3-------3-------3-----------|
G|---0-0-0-0-0-0-0-0-0-0-0-0-0-0-0-----------|
D|-0-0-0-0-0-0-0-0-0-0-0-0-0-0-0-0--|
A|-0-x-x---x-x-x---x-x-x---x-x-x-------------|
E|-0-3-3---3-3-3---3-3-3---3-3-3-------------|

e|-------3-------3-------3-------3-------3-------3-------3-------3--|
B|-------3-------3-------3-------3-------3-------3-------3-------3--|
G|-0-0-0-0-0-0-0-0-0-0-0-0-0-0-0-0---0-0-0-0-0-0-0-0-0-0-0-0-0-0-0--|
D|-0-0-0-0-0-0-0-0-0-0-0-0-0-0-0-0-0-x-x-0-x-x-x-0-x-x-x-0-x-x-x-0--|
A|-x-x-x---x-x-x---x-x-x---x-x-x---0-3-3---3-3-3---3-3-3---3-3-3----|
E|-3-3-3---3-3-3---3-3-3---3-3-3---0-x-x---x-x-x---x-x-x---x-x-x----|
Falling down, it’s all around, it’s the only thing
that I have found, beneath the sun.
Scattering, there has to be a little more simplicity, to make this one

--------3---------3-------3-------3-------3-------3-------3-------3----|
--------3---------3-------3-------3-------3-------3-------3-------3----|
----x-x-x---x-x-x-x-x-x-x-x-x-x-x-x---0-0-0-0-0-0-0-0-0-0-0-0-0-0-0----|
--0-2-2-2---2-2-2-2-2-2-2-2-2-2-2-2-0-0-0-0-0-0-0-0-0-0-0-0-0-0-0-0----|
--0-0-0-----0-0-0---0-0-0---0-0-0---0-x-x---x-x-x---x-x-x---x-x-x------|
--0---------------------------------0-3-3---3-3-3---3-3-3---3-3-3------|
So take me, away
So take me, away
                                  |let ring
--------3---------3-------3-------3---3---3----3---3---|
--------3---------3-------3-------3---3---3---3---3----|
----x-x-x---x-x-x-x-x-x-x-x-x-x-x-x---0---0---0---0----|
--0-2-2-2---2-2-2-2-2-2-2-2-2-2-2-2-0-0---0---0---0----|
--0-0-0-----0-0-0---0-0-0---0-0-0---0-x---x---x---x----|
--0---------------------------------0-3---3---3---3----|
It’s brought me down                away from all I

interlude
-------3-------3-------3-------3-------3-------3-------3-------3--|
-------3-------3-------3-------3-------3-------3-------3-------3--|
-0-0-0-0-0-0-0-0-0-0-0-0-0-0-0-0---0-0-0-0-0-0-0-0-0-0-0-0-0-0-0--|
-0-0-0-0-0-0-0-0-0-0-0-0-0-0-0-0-0-x-x-0-x-x-x-0-x-x-x-0-x-x-x-0--|
-x-x-x---x-x-x---x-x-x---x-x-x---0-3-3---3-3-3---3-3-3---3-3-3----|
-3-3-3---3-3-3---3-3-3---3-3-3---0-x-x---x-x-x---x-x-x---x-x-x----|
 know                         ahh ahhh

e|-----3-------3-------3-------3-------3-------3-------3-------3--|
B|-----3-------3-------3-------3-------3-------3-------3-------3--|
G|-0-0-0-0-0-0-0-0-0-0-0-0-0-0-0---0-0-0-0-0-0-0-0-0-0-0-0-0-0-0--|
D|-0-0-0-0-0-0-0-0-0-0-0-0-0-0-0-0-x-x-0-x-x-x-0-x-x-x-0-x-x-x-0--|
A|-x-x---x-x-x---x-x-x---x-x-x---0-3-3---3-3-3---3-3-3---3-3-3----|
E|-3-3---3-3-3---3-3-3---3-3-3---0-x-x---x-x-x---x-x-x---x-x-x----|

--------3---------3-------3-------3--|
--------3---------3-------3-------3--|
----x-x-x---x-x-x-x-x-x-x-x-x-x-x-x--|
--0-2-2-2---2-2-2-2-2-2-2-2-2-2-2-2--|
--0-0-0-----0-0-0---0-0-0---0-0-0----|
--0----------------------------------|

>strum harder
-3-3-3-3--3-3-3-3--3-3-3-3--3-3-3-3-|-3-3-3-3--3-3-3-3--3-3-3-3--3-3-3-3-|
-3-3-3-3--3-3-3-3--3-3-3-3--3-3-3-3-|-3-3-3-3--3-3-3-3--3-3-3-3--3-3-3-3-|
-0-0-0-0--0-0-0-0--0-0-0-0--0-0-0-0-|-0-0-0-0--0-0-0-0--0-0-0-0--0-0-0-0-|
-0-0-0-0--0-0-0-0--0-0-0-0--0-0-0-0-|-x-x-x-x--x-x-x-x--x-x-x-x--x-x-x-x-|
-x-x-x-x--x-x-x-x--x-x-x-x--x-x-x-x-|-3-3-3-3--3-3-3-3--3-3-3-3--3-3-3-3-|
-3-3-3-3--3-3-3-3--3-3-3-3--3-3-3-3-|-x-x-x-x--x-x-x-x--x-x-x-x--x-x-x-x-|
 ahhhhh                             ahh ahhhh

-3-3-3-3-3-3-3-3-3-3-3-3-3-3-3-3-|-3-3-3-3-3-3-3-3-3-3-3-3-3-3-3-3-|
-3-3-3-3-3-3-3-3-3-3-3-3-3-3-3-3-|-3-3-3-3-3-3-3-3-3-3-3-3-3-3-3-3-|
-0-0-0-0-0-0-0-0-0-0-0-0-0-0-0-0-|-0-0-0-0-0-0-0-0-0-0-0-0-0-0-0-0-|
-0-0-0-0-0-0-0-0-0-0-0-0-0-0-0-0-|-x-x-x-x-x-x-x-x-x-x-x-x-x-x-x-x-|
-x-x-x-x-x-x-x-x-x-x-x-x-x-x-x-x-|-3-3-3-3-3-3-3-3-3-3-3-3-3-3-3-3-|
-3-3-3-3-3-3-3-3-3-3-3-3-3-3-3-3-|-x-x-x-x-x-x-x-x-x-x-x-x-x-x-x-x-|
 ahhhhh                          ahh ahh ahhhh

--3-3-3-3-3-3-3-3-3-3-3-3-3-3-3-3--|
--3-3-3-3-3-3-3-3-3-3-3-3-3-3-3-3--|
--x-x-x-x-x-x-x-x-x-x-x-x-x-x-x-x--|
--2-2-2-2-2-2-2-2-2-2-2-2-2-2-2-2--|
--0-0-0-0-0-0-0-0-0-0-0-0-0-0-0-0--|
-----------------------------------|
  ahhh                     ahhh

>play softly
e|-----3-------3-------3-------3-------3-------3-------3-------3----|
B|-----3-------3-------3-------3-------3-------3-------3-------3----|
G|-0-0-0-0-0-0-0-0-0-0-0-0-0-0-0-0---0-0-0-0-0-0-0-0-0-0-0-0-0-0-0--|
D|-0-0-0-0-0-0-0-0-0-0-0-0-0-0-0-0-0-x-x-0-x-x-x-0-x-x-x-0-x-x-x-0--|
A|-x-x-x---x-x-x---x-x-x---x-x-x---0-3-3---3-3-3---3-3-3---3-3-3----|
E|-3-3-3---3-3-3---3-3-3---3-3-3---0-x-x---x-x-x---x-x-x---x-x-x----|
 ahhh
e|-----3-------3-------3-------3-------3-------3-------3-------3--|
B|-----3-------3-------3-------3-------3-------3-------3-------3--|
G|-0-0-0-0-0-0-0-0-0-0-0-0-0-0-0---0-0-0-0-0-0-0-0-0-0-0-0-0-0-0--|
D|-0-0-0-0-0-0-0-0-0-0-0-0-0-0-0-0-x-x-0-x-x-x-0-x-x-x-0-x-x-x-0--|
A|-x-x---x-x-x---x-x-x---x-x-x---0-3-3---3-3-3---3-3-3---3-3-3----|
E|-3-3---3-3-3---3-3-3---3-3-3---0-x-x---x-x-x---x-x-x---x-x-x----|

--------3---------3-------3-------3-------3-------3-------3-------3----|
--------3---------3-------3-------3-------3-------3-------3-------3----|
----x-x-x---x-x-x-x-x-x-x-x-x-x-x-x---0-0-0-0-0-0-0-0-0-0-0-0-0-0-0----|
--0-2-2-2---2-2-2-2-2-2-2-2-2-2-2-2-0-0-0-0-0-0-0-0-0-0-0-0-0-0-0-0----|
--0-0-0-----0-0-0---0-0-0---0-0-0---0-x-x---x-x-x---x-x-x---x-x-x------|
--0---------------------------------0-3-3---3-3-3---3-3-3---3-3-3------|
So take me, away
Take me, today

>strum harder
--------3---------3-------3-------3-------3-------3-------3-------3----|
--------3---------3-------3-------3-------3-------3-------3-------3----|
----x-x-x---x-x-x-x-x-x-x-x-x-x-x-x---0-0-0-0-0-0-0-0-0-0-0-0-0-0-0----|
--0-2-2-2---2-2-2-2-2-2-2-2-2-2-2-2-0-0-0-0-0-0-0-0-0-0-0-0-0-0-0-0----|
--0-0-0-----0-0-0---0-0-0---0-0-0---0-x-x---x-x-x---x-x-x---x-x-x------|
--0---------------------------------0-3-3---3-3-3---3-3-3---3-3-3------|
Take me, away
Take me, away
It's brought me down, it's turned me around.

                                  |let ring
--------3---------3-------3-------3---3---3---3---3--|
--------3---------3-------3-------3---3---3---3---3--|
----x-x-x---x-x-x-x-x-x-x-x-x-x-x-x---0---0---0---0--|
--0-2-2-2---2-2-2-2-2-2-2-2-2-2-2-2-0-0---0---0---0--|
--0-0-0-----0-0-0---0-0-0---0-0-0---0-x---x---x---x--|
--0---------------------------------0-3---3---3---3--|
It’s brought me down                away from all I

-------3-------3-------3-------3-------3-------3-------3-------3--|
-------3-------3-------3-------3-------3-------3-------3-------3--|
-0-0-0-0-0-0-0-0-0-0-0-0-0-0-0-0---0-0-0-0-0-0-0-0-0-0-0-0-0-0-0--|
-0-0-0-0-0-0-0-0-0-0-0-0-0-0-0-0-0-x-x-0-x-x-x-0-x-x-x-0-x-x-x-0--|
-x-x-x---x-x-x---x-x-x---x-x-x---0-3-3---3-3-3---3-3-3---3-3-3----|
-3-3-3---3-3-3---3-3-3---3-3-3---0-x-x---x-x-x---x-x-x---x-x-x----|
 know                      ahh ahhh                     let last
                                                           chord ring
e|-----3-------3-------3-------3-------3-------3-------3-3-3--|
B|-----3-------3-------3-------3-------3-------3-------3-3-3--|
G|-0-0-0-0-0-0-0-0-0-0-0-0-0-0-0---0-0-0-0-0-0-0-0-0-0-0-0-0--|
D|-0-0-0-0-0-0-0-0-0-0-0-0-0-0-0-0-x-x-0-x-x-x-0-x-x-x-0-x-x--|
A|-x-x---x-x-x---x-x-x---x-x-x---0-3-3---3-3-3---3-3-3---3-3--|
E|-3-3---3-3-3---3-3-3---3-3-3---0-x-x---x-x-x---x-x-x---x-x--|
            
Hard to play? Try these video lessons and learn fast. | Correct




comments powered by Disqus
↑ Back to top | Tablatures and chords are parodies/interpretations of the original songs. You may use it for private study, scholarship, research or language learning purposes only