» » »

Five Times August, Love The Way Tabs (ver.1)

Artists:  A B C D E F G H I J K L M N O P Q R S T U V W X Y Z # 

Love The Way Tabs (ver.1)

Five Times August Tabs
Rating:
2/5 (3 votes)
Love The Way lessons Tabs too difficult? Try these video lessons and learn fast
                
~~~~~~~~~~
I didn't want to tab this song out, because I've been really busy with school and work,
I needed to play this song. To get the words out on paper, or type. Bottled emotions
I cannot sing out.
~~~~~~~~~~

***I apologise for a partial tab, my computer is crashing and I had to record this
I lose all progress, I'll come back and complete it sometime in the future***

will be correct, because I'll have no previous work to compare with, let alone a copy

The number of times I show a chord has nothing to do w/ strumming, it's just a rough
relative to the measure. Strum to the song, not my tab.

The mutes will need to be slapped, and the song has a tendency to crescendo and
a lot, so pay attention to the song. Some strings that are required to be muted in the chords
hard to mute, it's an option to tune these strings up or down, in tune w/ the rest of 
song to stay in key when strummed. The third fret hammer on the e string is quite common,
ahead and do it whenever you feel like it. Strumming is difficult to pinpoint, but tweak 
with it, sounds beautiful any way.

Side Note: I got very fed up with the open A string while tabbing, i had some personal
to either using the second fret or an open A, but both work fine. Choose one that's
and better sounding to you.

...yes, I talk a lot. :p

Tuning: Standard (Capo 3 fret)


Intro (Quitely)
                                                         *1
e|--3------------|--3------------|--3------------|--3--------(3)-|
B|--X--1--0--1---|-----1--0--1---|-----1--0--1---|-----1--0~-----|
G|--X------------|---------------|---------------|---------------|
D|--X------------|---------------|---------------|---------------|
A|--3------------|---------------|---------------|---------------|
E|--X------------|---------------|---------------|---------------|

e|--3------------|--3------------|--3------------|--3~-----------|
B|--X--1--0--1---|-----1--0--1---|-----1--0--1---|---------------|
G|--X------------|---------------|---------------|---------------|
D|--X------------|---------------|---------------|---------------|
A|--3------------|---------------|---------------|---------------|
E|--X------------|---------------|---------------|---------------|


Verse
   *2                     *3
e|--3--3---X--X--X------|--X--X--X-X---X---|x2
B|--1--1---1--1--1------|--0--0--0/1---1---|
G|--0--0---0--X--0------|--0--0--0-X---0---|
D|--X--X---X--X--X------|--X--X--X-X---X---|
A|--3--3---3--3--3------|--0--0--0-2(3)2(3)|
E|--X--X---X--X--X------|--X--X--X-X---X---|

          *4               *5
e|--X--X---X--X--X--X--X--X-X--X~---|
B|--1--1---1--1--1--0--0--0/1--1~---|
G|--0--0---0--0--0--0--0--0-X--0~---|
D|--X--X---X--X--X--X--X--X-X--X~---|
A|--X--3---X--3--3--2--2--2/3--3~---|
E|--3--3---3--X--3--3--X--3-X--X~---|


Pre-Chorus

e|--X--3---X--3--X--3--3--3-3--3---|
B|--0--0---0--0--0--0--0--0/1--1---|
G|--0--0---X--X--X--X--X--X-X--X---|
D|--X--X---X--X--X--X--X--X-X--X---|
A|--3--3---3--3--3--3--3--3/3--3---|
E|--X--X---X--X--X--X--X--X-X--X---|


Chorus
   *3                         *6
e|--X--X/X----X--X--X---X---|--X--X/X--X---X--X--X---X-X--X-X-X-|
B|--1--1/X----1--1--1---X---|--1--1/X--1---0--0--0---0/1--1-1-1-|
G|--0--0/X----0--0--0---X---|--X--X/X--0---0--0--0---0-X--0-0-0-|
D|--X--X/X----X--X--X---X---|--X--X/X--X---X--X--X---X-X--X-X-X-|
A|--3--3/X----3--3--3---X---|--3--3/X--3---2--2--2---2/3--3-3-3-|
E|--X--X/X----X--X--X---X---|--X--X/X--X---X--X--X---X-X--X-X-X-|

                                          *7
e|--X--X/X----X--X--X---X---|--X--X/X--X---X--X--X---X-X--X-X-X-|
B|--0--X/X----X--0--X---X---|--X--X/X--X---0--0--0---0/1--1-1-1-|
G|--0--0/X----0--0--0---X---|--0--0/X--0---0--0--0---0-0--0-0-0-|
D|--X--X/X----X--X--X---X---|--X--X/X--X---X--X--X---X-X--X-X-X-|
A|--0--0/X----0--0--0---X---|--0--0/X--0---0--0--0---0/2--2-2-2-|
E|--X--X/X----X--X--X---X---|--X--X/X--X---X--X--X---X-X--X-X-X-|

  *3                         *6
e|--X--X/X----X--X--X---X---|--X--X/X--X---X--X--X---X-X--X-X-X-|
B|--1--1/X----1--1--1---X---|--1--1/X--1---0--0--0---0/1--1-1-1-|
G|--0--0/X----0--0--0---X---|--X--X/X--0---0--0--0---0-X--0-0-0-|
D|--X--X/X----X--X--X---X---|--X--X/X--X---X--X--X---X-X--X-X-X-|
A|--3--3/X----3--3--3---X---|--3--3/X--3---2--2--2---2/3--3-3-3-|
E|--X--X/X----X--X--X---X---|--X--X/X--X---X--X--X---X-X--X-X-X-|


Chorus II

e|--X--X/X----X--X--X---X---|--X--X/X----X--X/X----X--X--X/X----|
B|--0--X/X----X--0--X---X---|--X--X/X----X--X/X----X--X--X/X----|
G|--0--0/X----0--0--0---X---|--0--0/X----0--0/X----0--0--0/X----|
D|--X--X/X----X--X--X---X---|--X--0/X----0--0/X----0--0--0/X----|
A|--0--0/X----0--0--0---X---|--0--X/X----X--X/X----X--X--X/X----|
E|--X--X/X----X--X--X---X---|--X--3/X----3--3/X----3--3--3/X----|


e|--X--X--X--X--X--X--X/X---|
B|--X--X--0--0--0--0--0/1---|
G|--0--0--0--0--0--0--0/X---|
D|--0--X--X--X--X--X--X/X---|
A|--X--0--0--0--0--0--0/0---|
E|--3--3--3--3--3--3--3/3---|
                                          *7
e|--X--X/X----X--X--X---X---|--X--X/X--X---X--X--X---X-X--X-X-X-|
B|--0--X/X----X--0--X---X---|--X--X/X--X---0--0--0---0/1--1-1-1-|
G|--0--0/X----0--0--0---X---|--0--0/X--0---0--0--0---0-0--0-0-0-|
D|--X--X/X----X--X--X---X---|--X--X/X--X---X--X--X---X-X--X-X-X-|
A|--0--0/X----0--0--0---X---|--0--0/X--0---0--0--0---0/2--2-2-2-|
E|--X--X/X----X--X--X---X---|--X--X/X--X---X--X--X---X-X--X-X-X-|

~~~~~~~~~~
Footnotes
*1: Optional Vibrato, just vibrate on another string.
*2: G string may be muted throughout all the verses, either sounds great.
*3: I know that you can hear an open A string, so it's optional. I wrote the mute 2
it keeps it easy to mute the D string, and the only not emphasized is the open B anyway.
free to play the open string though. What's that also? Hammered-On 3 on the e string? 
why not.
*4: There are G's through-out, but a lot of strums only include the top register notes,
to whatever you perfer.
*5: These hammers aren't necessary, a 2 or 3 will sound fine.
*6: Optional double note pick up (three hits, not including the note cut off)
*7: Crescendo will help make it sound so obvious you have a new open string.
            

comments powered by Disqus
↑ Back to top | Five Times August Tabs for Love The Way. Lyrics for acoustic guitar and electric guitar. Tablatures and chords are parodies/interpretations of the original songs. You may use it for private study, scholarship, research or language learning purposes only