>
 >
Better With You 2

Better With You 2 Guitar Tabs

Five Times August - Better With You 2 chords, tabs, tablatures, lyrics

Guitar lessons | Add/correct | Request | Top 50 tabs Artists:  A B C D E F G H I J K L M N O P Q R S T U V W X Y Z 0-9

Better With You 2 Guitar Tabs – Five Times August

CD, Sheet music, Poster

Do you like Better With You 2? Share with your friends now
ChordsTabsTabs v2Ukulele
** Alrighty, Here's a bit better Version of this song, Writen By Brad Skistimas - Five 
August **

I Believe this is it..

CAPO on Fret 1 !! Or it won't sound as nice..

h = Hammer On
/ = Slide UP
\ = Slide DOWN
X = Don't Hit String

Intro


  Palm Mute these 4
X-----X-----X------X---|
3-----3-----3------3---|
0-----0-----0------0---|
0-----0-----0------0---|
0-----0-----0------0---|
3-----3-----3------3---|


Intro
X-----X-----X-----3--2--3-------X-----X-----X-------0---------3-|
3-----3-----3-----3--3--3-------3-----3-----3-------3/ 5 \3---3-|
0h2---0h2---0-----2--2--2-------2h0---0h2---0h2-----2/ 4 \2---0-|
0-----0-----0h2---0--0--0-------0-----0-----0-------0---------2-|
X-----2-----3-----x--x--x-------X-----X-----2-------X---------3-|
3-----X-----X-----x--x--x-------X-----3-----X-------X---------X-|

Verse
X---------X----------X---------X---|
3---------3----------3---------3---|
0h2-------0h2--------0---------2h0-|
0---------0----------0h2-------0---|
X---------2----------3---------X---|
3---------X----------X---------X---|

Chorus
---x-----x-----x------x-------x-----x-----x-------|
---3-----3-----3------3-------3-----3-----3-------|
---0-----2-----0------2-------0-----2-----0-------|
---0-----0-----0------0-------0-----0-----0-------|
---2-----x-----3------x-------2-----x-----3-------|
---x-----x-----x------x-------x-----x-----x-------|

Bridge/Outro:
So use me dont let me..
3-------3-------3--------3-|
1-------1-------1--------3-|
0-------0-------0--------0-|
2-------0-------2--------2-|
0-------2-------3--------2-|
X-------X-------X--------0-|

Verse
X---------X----------X---------X---|
3---------3----------3---------3---|
0h2-------0h2--------0---------2h0-|
0---------0----------0h2-------0---|
X---------2----------3---------X---|
3---------X----------X---------X---|

Chorus
---x-----x-----x------x-------x-----x-----x-------|
---3-----3-----3------3-------3-----3-----3-------|
---0-----2-----0------2-------0-----2-----0-------|
---0-----0-----0------0-------0-----0-----0-------|
---2-----x-----3------x-------2-----x-----3-------|
---x-----x-----x------x-------x-----x-----x-------|

Bridge/Outro:
So use me dont let me..
3-------3-------3--------3-|
1-------1-------1--------3-|
0-------0-------0--------0-|
2-------0-------2--------2-|
0-------2-------3--------2-|
X-------X-------X--------0-|





Comments


Popular Five Times August tabs & chords
Love The Way Chords
Love The Way 1 Chords
Do It Again Tabs
Do It Again 2 Tabs
Most Uncommon Thing Tabs
Save It For Later Tabs
Sorry Tabs
Wherever Tabs
Better With You Ukulele
Love The Way Ukulele


Song lyrics



↑ Back to top | Tablatures and chords are parodies/interpretations of the original songs. You may use it for private study, scholarship, research or language learning purposes only
© 2014 AZChords.com Contact us | Privacy policy | DMCA | Add/correct tabs | Request tabs | Top 50 tabs