>
 >
Me Oh My

Me Oh My Bass Tabs

Five Iron Frenzy - Me Oh My chords, tabs, tablatures, lyrics

Guitar lessons | Add/correct | Request | Top 50 tabs Artists:  A B C D E F G H I J K L M N O P Q R S T U V W X Y Z 0-9

Me Oh My Bass Tabs – Five Iron Frenzy

CD, Sheet music, Poster

Do you like Me Oh My? Share with your friends now
Bass Tabs
Intro 
G--------------------------------------------------------------------- 
D----2-5-2-3333-7-5---2-5-2-3333-2-0----2-5-2-3333-7-5---2-5-2-33-2--- 
A --3----------------3-----------------3----------------3------------3- 
E--------------------------------------------------------------------- 

Verse 
G ----------------------- 
D ---------3>--5>--3----- 
A 3>--0>-------------3-- 
E ----------------------- 

Pre-Chorus 
G ----------------------  ---------------------- 
D ----------------------  ---------------------- 
A ---------3---------5--  --7--5--8--3--5------- 
E --5--333----5--333----  -----------------5--3- 

Chorus 
G--------------------------------------------------- 
D --------------------------------------------------- 
A------3>-7>-------5>----------3>-7>-------3>----3- 
E1>-3>-------1>-3>----3>-1>-3>-------1>-3>----3>--- 

Bridge 
G --------------------------------------------------------  -------- 
D --------------------------------------------------------  -------- 
A 7>--5>--3>--0>--7>--5>--8>--------------3>-------------  -------- 
E -----------------------------5>--1>--5>------5>--1>--3>-  ---5/1--





Comments


Popular Five Iron Frenzy tabs & chords
Farenheit 1 Bass Tabs
Oh, Canada 2 Bass Tabs
One Girl Army Bass Tabs
Suckerpunch Bass Tabs
Suckerpunch 1 Bass Tabs
Sweet Talking Woman Bass Tabs
The Greatest Story Ever Told 3 Bass Tabs
Dandelions Chords
A Flowery Song 1 Tabs
World Without End Tabs


Song lyrics



↑ Back to top | Tablatures and chords are parodies/interpretations of the original songs. You may use it for private study, scholarship, research or language learning purposes only
© 2014 AZChords.com Contact us | Privacy policy | DMCA | Add/correct tabs | Request tabs | Top 50 tabs