» » »

Five Iron Frenzy, Me Oh My Bass tabs (ver.1)

Artists:  A B C D E F G H I J K L M N O P Q R S T U V W X Y Z # 

Me Oh My Bass tabs (ver.1)

Five Iron Frenzy Tabs
 Rating:
4/5 (4 votes)
Me Oh My lessons Tabs too difficult? Try these video lessons and learn fast
1
                Intro 
G--------------------------------------------------------------------- 
D----2-5-2-3333-7-5---2-5-2-3333-2-0----2-5-2-3333-7-5---2-5-2-33-2--- 
A --3----------------3-----------------3----------------3------------3- 
E--------------------------------------------------------------------- 

Verse 
G ----------------------- 
D ---------3>--5>--3----- 
A –3>--0>-------------3-- 
E ----------------------- 

Pre-Chorus 
G ----------------------  ---------------------- 
D ----------------------  ---------------------- 
A ---------3---------5--  --7--5--8--3--5------- 
E --5--333----5--333----  -----------------5--3- 

Chorus 
G--------------------------------------------------- 
D --------------------------------------------------- 
A–------3>-7>-------5>----------3>-7>-------3>----3- 
E–1>-3>-------1>-3>----3>-1>-3>-------1>-3>----3>--- 

Bridge 
G --------------------------------------------------------  -------- 
D --------------------------------------------------------  -------- 
A –7>--5>--3>--0>--7>--5>--8>--------------3>-------------  -------- 
E -----------------------------5>--1>--5>------5>--1>--3>-  ---5/1--
            
Submit corrections

comments powered by Disqus
↑ Back to top | Five Iron Frenzy Bass for Me Oh My. Lyrics for acoustic guitar and electric guitar. 1 Tablatures and chords are parodies/interpretations of the original songs. You may use it for private study, scholarship, research or language learning purposes only