» » »

Five Iron Frenzy, I Feel Lucky Bass tabs (ver.1)

Artists:  A B C D E F G H I J K L M N O P Q R S T U V W X Y Z # 

I Feel Lucky Bass tabs (ver.1)

Five Iron Frenzy Tabs
Rating:
0/5 (0 votes)
I Feel Lucky lessons Tabs too difficult? Try these video lessons and learn fast
                
intro/verse:
G|---------------------------------------|
D|---------------------------------------|
A|-----6---------6---------6---------4-5-|
E|-7-7---9---7-7---9---7-7---9---5-5-----|

chorus:
G|---------------------------------------|
D|---------------------------------------|
A|-----66--------66--------66--------4455|
E|-7--7--99--7--7--99--7--7--99--5--5----|

after chorus:
G|---------------------------------------|
D|---------------------------------------|
A|---------------------------------------|
E|-5--3-333--5--3-333--5--3-333--5--3-333|

G|---------------------------------------|
D|---------------------------------------|
A|---------------------------------------|
E|-5--3-333--5--3-333--5--3-333--55-5-55-|

bridge (1st part with mostly guitar):
G|-----------|
D|-----------|
A|---4-7-----|
E|-5---------|

bridge (2nd part with horns):
G|---------------------------------------|
D|---------------------------------------|
A|---4-7-------4-7-------4-7-------------|
E|-5---------5---------5---------7-7-----|

end on "B": E|-7

Song structure :
Intro  		x3
Chorus 		x3
After-chorus 	x1
Intro  		x4 
Chourus		x3
After-Chorus	x1
Bridge (1st)	x3
Bridge (2nd)	x8
Intro		x1
End
            

comments powered by Disqus
↑ Back to top | Five Iron Frenzy Bass for I Feel Lucky. Lyrics for acoustic guitar and electric guitar. Tablatures and chords are parodies/interpretations of the original songs. You may use it for private study, scholarship, research or language learning purposes only