» » »

Get Your Riot Gear Bass tabs (ver.1)

Artists:  A B C D E F G H I J K L M N O P Q R S T U V W X Y Z # 

Get Your Riot Gear Bass tabs (ver.1)

Five Iron Frenzy
Rating:
3/5 (2 votes)

Hard to play? Try these video lessons and learn fast.
                
The other version is pretty close, but some parts are simplified and some are missing.

Tuning: Standard

Verse:
G|-11----------------10-|
D|---11-9------12-11----|
A|-------12-11----------| x2
E|----------------------|

G|-11------------------------------------|
D|---11-9------12--12--------------------|
A|-------12-11---10---9-9----------------|
E|-----------------------12-12-10-10-9-9-|


Pre-Chorus:
G|-----------9-6---|
D|---6-9-6-7-----7-|
A|-7---------------|
E|-----------------|

G|-------------6------------------------------------------------------------|
D|---3-6-3-4-7---7---4-7-4---6-9-6------------------------------------------|
A|-4---------------5-------7------------------------------------------------|
E|--------------------------------------------------------------------------|

Verse

Pre-Chorus

Chorus: (Go and get your riot gear...)
G|-----------------|
D|---------4-4-----|
A|-----4-4-----7-7-| Repeat throughout chorus
E|-5-5-------------|

Verse

Pre-Chorus

Chorus

Bridge: (part without any vocals)
G|-----------------------------------|
D|------------------------------6-9--|
A|-----6-9-----4-7-----2-5--7-9------| x2
E|-7-9-----5-7-----3-5---------------|

Repeat verse a few times in the instrumental part

Chorus

Thanks for using this, this is a really fun song to play and you can play it at any random time.
            
Hard to play? Try these video lessons and learn fast. | Correct




comments powered by Disqus
↑ Back to top | Tablatures and chords are parodies/interpretations of the original songs. You may use it for private study, scholarship, research or language learning purposes only