» » »

Five Iron Frenzy, Four-Fifty-One Bass tabs (ver.1)

Artists:  A B C D E F G H I J K L M N O P Q R S T U V W X Y Z # 

Four-Fifty-One Bass tabs (ver.1)

Five Iron Frenzy Tabs
 Rating:
4/5 (4 votes)
Four-Fifty-One lessons Tabs too difficult? Try these video lessons and learn fast
                


Release Date: 2000
Label: 5 Minute Walk Records
Bassist: Keith Hoerig

BASS TAB

Legend:
*  = changes (look for footnotes)
r  = let the note ring until the next note
x# = play the note for # beats

[Intro/Post-Chorus/Outro*]

G|--------------------------------------------------------------|
D|3-3-3---------------------------3-3-3-------------------------|
A|------3---3---0---0-0---1-1---1-------3---3---0---0-0-1-3---1-|
E|--------------------------------------------------------------|

*After the last repetition of the Outro, end on F.

[Verse] "Here the man draw the line..."

G|----------------------------------------------------------------|
D|3-3-2-2-0-0-----------------0-0-0-0-2-2-3-3-2-2---------0-0-2-2-|
A|------------3-3-0-0-1-1-3-3---------------------1-1-3-3---------|
E|----------------------------------------------------------------|

[Pre-Chorus] "We're going nowhere..."

G|----------------------------------------------------------------|
D|--------0---0-----------3-3---3---------0---0-------------------|
A|0r--------------3---3-3---------0r--------------3-3-3-3-3-3-3-3-|
E|----------------------------------------------------------------|

[Chorus] "Somewhere away from here..."

  (A)              (B)              (C)              (D)
G|----------------|----------------|----------------|--------0x4-----|
D|----0-3-----3---|--------3x4-----|3x4-------------|3x4-------------|
A|1-3-------0-----|----------------|----------------|----------------|
E|----------------|3x4-------------|--------3x4-----|----------------|

The order for this is ABCABD.

[Bridge] "The radio is preaching..."

  (A)
G|0-0-0-0-0-0-0-0-------------------------------------------------|
D|----------------0-0-0-0-0-0-0-0-3-3-3-3-3-3-3-3-----------------|
A|------------------------------------------------3-3-3-3-3-3-3-3-|
E|----------------------------------------------------------------|

  (B)
G|0-0-0-0-0-0-0-0---------------------------------0-0-0-0-0-0-0-0-|
D|----------------0-0-0-0-0-0-0-0-3-3-3-3-3-3-3-3-----------------|
A|----------------------------------------------------------------|
E|----------------------------------------------------------------|

The order for this is AAAB.

[Recap On The Order]

Intro (two times)
Verse (four times)
Pre-Chorus (two times)
Chorus
Post-Chorus (two times)
Verse (two times)
Pre-Chorus (two times)
Chorus
Bridge
Pre-Chorus (two times)
{Guitar Solo Chorus}
Chorus
Outro (two times)
            
Submit corrections

comments powered by Disqus
↑ Back to top | Five Iron Frenzy Bass for Four-Fifty-One. Lyrics for acoustic guitar and electric guitar. Tablatures and chords are parodies/interpretations of the original songs. You may use it for private study, scholarship, research or language learning purposes only