» » »

Five Iron Frenzy, Fahrenheit Bass tabs (ver.1)

Artists:  A B C D E F G H I J K L M N O P Q R S T U V W X Y Z # 

Fahrenheit Bass tabs (ver.1)

Five Iron Frenzy Tabs
 Rating:
4/5 (4 votes)
Fahrenheit lessons Tabs too difficult? Try these video lessons and learn fast
1
                intro:
G------------------------------------------------------------
D------------------------------------------------------------
A---------------------------------------------------8-8------
E--0r--4r--7r--9r--00--77--44--99--0r--4r--7r--9r--(1313)----

verse:
G------------------------------------------------------------
D------------------------------------------------------------
A--0--2--4--2--0-----------------2--5--4--2------------------
E-----------------44----------4--------------44--------------

prechorus:
G--------------------
D--------------------
A--00--4r--22--7r----
E--------------------

Chorus:
G------------------------------------------------
D------------------------------------------------
A-0r-4r-7r-99-9r-7r-4r-00-2r-5r-7r-55-7r-4r-0----
E------------------------------------------------

bridge:
G------
D------
A--7-8-
E------
(play the first line 2x)
G------------------------------------------------------------------------
D-4-6-7-9-11-9-7-6-7-6-4-2-0---------------------------4-0---3-6-3----
A----------------------------4-2-0-2-4-5-7-9-7-5-4-2-5-----4----------
E------------------------------------------------------------------------

G------------------------------------------------
D-0-2-4-6-7-6-4-2--------------------------------
A-----------------0-2-4-5-7-5-4-0-2-4-5-7-9-7-5-4
E------------------------------------------------

G----------------------------------------------------------------------------
D--4-6-7-9-7-6-4-2-0-2-4-6-7-6-4-2-------------------------------------------
A----------------------------------0-2-4-5-7-5-4-0-2-4-5-7-9-7-5-4-5-7-9-5-4-
E----------------------------------------------------------------------------
            
Submit corrections

comments powered by Disqus
↑ Back to top | Five Iron Frenzy Bass for Fahrenheit. Lyrics for acoustic guitar and electric guitar. 1 Tablatures and chords are parodies/interpretations of the original songs. You may use it for private study, scholarship, research or language learning purposes only