>
 >
Every New Day 1

Every New Day 1 Guitar Tabs

Five Iron Frenzy - Every New Day 1 chords, tabs, tablatures, lyrics

Guitar lessons | Add/correct | Request | Top 50 tabs Artists:  A B C D E F G H I J K L M N O P Q R S T U V W X Y Z 0-9

Every New Day 1 Guitar Tabs – Five Iron Frenzy

CD, Sheet music, Poster

Do you like Every New Day 1? Share with your friends now
Bass TabsBass Tabs v2Bass Tabs v3ChordsTabsTabs v2Ukulele
Tuning: Standard

Guitar 1 (Right)

Intro/Horn Section/Verse/Chorus:

e|--4-4---4-7-7---7-7-7---7-5-5---5-|
B|--5-5---5-7-7---7-9-9---9-5-5---5-|
G|--6-6---6-8-8---8-9-9---9-6-6---6-|
D|----------------------------------|
A|----------------------------------|
E|----------------------------------|

Horn Section
Verse

Prechorus:

e|--9----9----9----9----7---7---7---7--|
B|--10---10---10---10---9---9---9---9--|
G|--11---11---11---11---9---9---9---9--|x3
D|-------------------------------------|
A|-------------------------------------|
E|-------------------------------------|

e|--9----9----9----9----8-8---8---8---8--|
B|--10---10---10---10---9-9---9---9---9--|
G|--11---11---11---11---8-8---8---8---8--|
D|---------------------------------------|
A|---------------------------------------|
E|---------------------------------------|

Chorus
Horn Section
Verse 2
Prechorus
Chorus
Horn Section
Bridge:

e|--4-4---4---4---4---4---4---4---4---5-5---5---5---5---5---5---5---5--|
B|--5-4---5---5---4---4---5---5---4---5-5---5---5---5---5---5---5---5--|
G|--5-5---5---5---5---5---5---5---5---6-6---6---6---6---6---6---6---6--|x2
D|---------------------------------------------------------------------|
A|---------------------------------------------------------------------|
E|---------------------------------------------------------------------|

e|--4-------------5-------------|
B|--5-------------7-------------|
G|--6-------------7-------------|x4
D|------------------------------|
A|------------------------------|
E|------------------------------|

e|-----------------------------------------------------------------|
B|-----------------------------------------------------------------|
G|-----------------------------------------------------------------|
D|-9-9-9-9-9-9-9-9-9-9-9-9-9-9-9-9-7-7-7-7-7-7-7-7-7-7-7-7-7-7-7-7-|
A|-9-9-9-9-9-9-9-9-9-9-9-9-9-9-9-9-7-7-7-7-7-7-7-7-7-7-7-7-7-7-7-7-|
E|-7-9-7-7-7-7-7-7-7-7-7-7-7-7-7-7-5-5-5-5-5-5-5-5-5-5-5-5-5-5-5-5-|
   pm

e|-----------------------------------------------------------------|
B|-----------------------------------------------------------------|
G|-----------------------------------------------------------------|
D|-9-9-9-9-9-9-9-9-9-9-9-9-9-9-9-9-7-7-7-7-7-7-7-7-9-9-9-9-9-9-9-9-|
A|-9-9-9-9-9-9-9-9-9-9-9-9-9-9-9-9-7-7-7-7-7-7-7-7-9-9-9-9-9-9-9-9-|
E|-7-9-7-7-7-7-7-7-7-7-7-7-7-7-7-7-5-5-5-5-5-5-5-5-7-7-7-7-7-7-7-7-|
   pm

Outro:
e|---------------------------------------------------------------------|
B|---------------------------------------------------------------------|
G|-9-9-9-9-9-9-9-9-----------------------------------------------------|
D|-9-9-9-9-9-9-9-9-9-9-9-9-9-9-9-9-6-6-6-6-6-6-6-6-11-11-11-11-9-9-9-7-|
A|-7-7-7-7-7-7-7-7-9-9-9-9-9-9-9-9-6-6-6-6-6-6-6-6-11-11-11-11-9-9-9-7-|
E|-----------------7-7-7-7-7-7-7-7-4-4-4-4-4-4-4-4-9--9--9--9--7-7-7-5-|

-----------------------------------------------------------------|
-----------------------------------------------------------------|
-----------------------------------------------------------------|x2
---7-7-7-7-7-7-7-2-2-2-2-2-2-2-2-4-4-4-4-4-4-4-4-9-9-9-9-9-9-9-9-|
---7-7-7-7-7-7-7-2-2-2-2-2-2-2-2-4-4-4-4-4-4-4-4-9-9-9-9-9-9-9-9-|
---5-5-5-5-5-5-5-0-0-0-0-0-0-0-0-2-2-2-2-2-2-2-2-7-7-7-7-7-7-7-7-|

e|------------------------------------------------------------------|
B|------------------------------------------------------------------|
G|-9-9-9-9-9-9-9-9-8-8-8-8-8-8-8-8-8-8-8-8-8-8-8-8-9-9-9-9-9-11---9-|
D|------------------------------------------------------------------|
A|-7-7-7-7-7-7-7-7-6-6-6-6-6-6-6-6-6-6-6-6-6-6-6-6-7-7-7-7-7-9----7-|
E|------------------------------------------------------------------|

e|----------------------------------------------------------------------------|
B|----------------------------------------------------------------------------|
G|---9-9-9-9-9-9-9-9-9-9-9-9-11---13---13-14-14-13-13-11-11-9-9-11-11-8-8-8-8-|
D|----------------------------------------------------------------------------|
A|---7-7-7-7-7-7-7-7-7-7-7-7-9----11---11-12-12-12-12-9--9--7-7-9--9--6-6-6-6-|
E|----------------------------------------------------------------------------|

e|------------------------------------------------------------------|
B|------------------------------------------------------------------|
G|-9-9-9-9-9-9-9-9-8-8-8-8-8-8-8-8-8-8-8-8-8-8-8-8-9-9-9-9-9-11---9-|
D|------------------------------------------------------------------|
A|-7-7-7-7-7-7-7-7-6-6-6-6-6-6-6-6-6-6-6-6-6-6-6-6-7-7-7-7-7-9----7-|
E|------------------------------------------------------------------|

e|--------------------------------------------------------------------|
B|--------------------------------------------------------------------|
G|---9-9-9-9-9-11---9---9-9-9-9-9-9-9-6-6-6-6-6-6-6-6-4-4-4-4-4-4-4-4-|
D|--------------------------------------------------------------------|
A|---7-7-7-7-7-9----7---7-7-7-7-7-7-7-4-4-4-4-4-4-4-4-2-2-2-2-2-2-2-2-|
E|--------------------------------------------------------------------|

e|-----------------------------------------------------------------------------|
B|-----------------------------------------------------------------------------|
G|-9-9-9-9-9-9-9-9-------------------------------------------------------------|
D|-9-9-9-9-9-9-9-9-9-9-9-9-9-9-9-9-10-10-10-10-10-10-10-10-11-11-11-11-9-9-9-7-|
A|-7-7-7-7-7-7-7-7-9-9-9-9-9-9-9-9-11-11-11-11-11-11-11-11-11-11-11-11-9-9-9-7-|
E|-----------------7-7-7-7-7-7-7-7-8--8--8--8--8--8--8--8--9--9--9--9--7-7-7-5-|

-----------------------------------------------------------------|
-----------------------------------------------------------------|
-----------------------------------------------------------------|x2
---7-7-7-7-7-7-7-6-6-6-6-6-6-6-6-4-4-4-4-4-4-4-4-9-9-9-9-9-9-9-9-|
---7-7-7-7-7-7-7-7-7-7-7-7-7-7-7-4-4-4-4-4-4-4-4-9-9-9-9-9-9-9-9-|
---5-5-5-5-5-5-5-4-4-4-4-4-4-4-4-2-2-2-2-2-2-2-2-7-7-7-7-7-7-7-7-|

e|------------|
B|------------|
G|-9----------|
D|-9----------|
A|-7----------|
E|------------|

Guitar 2 (Left)

Intro: Tacit

Horn Section/Verse/Chorus:
e|---------------------------------|
B|---------------------------------|
G|---------------------------------|
D|-------------1-1-2-2-------------|
A|-4-4-----2-2-----------2-0-0-3-3-|
E|-------4-------------------------|
    pm

Prechorus:
e|----------------------------------|
B|-------------2-2------------------|
G|---------2-2------------------1-1-|x2
D|-4-4---4------------------2-2-----|
A|-----------------4-4---4----------|
E|----------------------------------|
   pm

e|-------------------------------------------------------------------|
B|------------------------------------------2-2-------------1-1------|
G|-2-2---2------------------1-1-4-4-2-2---2-----2-2-1-1---1-----1-1--|
D|-------------1-1-2-2---2-------------------------------------------|
A|---------4-4-------------------------------------------------------|
E|-------------------------------------------------------------------|
   pm

Chorus
Horn Section
Verse 2
Prechorus
Chorus
Horn Section

Bridge:
e|-----------------------------------------------------------------|
B|-----------------------------------------------------------------|
G|-----------------------------------------------------------------|
D|-----------------------1-1-1---------------------------2-2-2-----|
A|-----------------3-3-3---------------------------4-4-4-----------|
E|-4-4-4-4-4-4-4-4-------------5-5-5-5-5-5-5-5-5-5-------------5-5-|
   pm

e|-----------------------------------------------------------------|
B|-----------------------------------------------------------------|
G|-----------------------------------------------------------------|
D|-----------------------1-1-1-------------------------------------|
A|-----------------3-3-3---------------------------4-4-4-4-4-4-4-4-|
E|-4-4-4-4-4-4-4-4-------------5-5-5-5-5-5-5-5-5-5-----------------|
   pm

e|-----------------------------|
B|-----------------------------|
G|-----------------------------|
D|-2--------------4\-----------|
A|-----------------------------|
E|-----------------------------|

e|-----------------------------------------------------------------|
B|-----------------------------------------------------------------|
G|-----------------------------------------------------------------|x3
D|-2-2-2-2-2-2-2-2-2-2-2-2-2/6-6-6-4-4-4-4-4-4-4-4-4-4-4-4-4/7-7-7-|
A|-----------------------------------------------------------------|
E|-----------------------------------------------------------------|
   pm

e|-----------------------------------------------------------------|
B|-----------------------------------------------------------------|
G|-----------------------------------------------------------------|
D|-4-4-4-4-4-4-4-4-4-4-4-4-6-6-6-6-2-2-2-2-2-2-2-2-2-2-2-2-6-6-6-6-|
A|-----------------------------------------------------------------|
E|-----------------------------------------------------------------|
   pm

e|-----------------------------------------------------------------|
B|-----------------------------------------------------------------|
G|-----------------------------------------------------------------|
D|-4-4-4-4-4-4-4-4-4-4-4-4-6-6-6-6-7-7-7-7-7-7-7-7-9-9-9-9-9-9-9-9-|
A|-----------------------------------------------------------------|
E|-----------------------------------------------------------------|
   pm

Outro:
e|---------------------------------------------------------------------|
B|---------------------------------------------------------------------|
G|-9-9-9-9-9-9-9-9-----------------------------------------------------|
D|-9-9-9-9-9-9-9-9-9-9-9-9-9-9-9-9-6-6-6-6-6-6-6-6-11-11-11-11-9-9-9-7-|
A|-7-7-7-7-7-7-7-7-9-9-9-9-9-9-9-9-6-6-6-6-6-6-6-6-11-11-11-11-9-9-9-7-|
E|-----------------7-7-7-7-7-7-7-7-4-4-4-4-4-4-4-4-9--9--9--9--7-7-7-5-|

-----------------------------------------------------------------|
-----------------------------------------------------------------|
-----------------------------------------------------------------|x2
---7-7-7-7-7-7-7-2-2-2-2-2-2-2-2-4-4-4-4-4-4-4-4-9-9-9-9-9-9-9-9-|
---7-7-7-7-7-7-7-2-2-2-2-2-2-2-2-4-4-4-4-4-4-4-4-9-9-9-9-9-9-9-9-|
---5-5-5-5-5-5-5-0-0-0-0-0-0-0-0-2-2-2-2-2-2-2-2-7-7-7-7-7-7-7-7-|

e|-----------------------------------------------------------------------------|
B|-----------------------------------------------------------------------------|
G|-9-9-9-9-9-9-9-9-------------------------------------------------------------|
D|-9-9-9-9-9-9-9-9-9-9-9-9-9-9-9-9-10-10-10-10-10-10-10-10-11-11-11-11-9-9-9-7-|
A|-7-7-7-7-7-7-7-7-9-9-9-9-9-9-9-9-11-11-11-11-11-11-11-11-11-11-11-11-9-9-9-7-|
E|-----------------7-7-7-7-7-7-7-7-8--8--8--8--8--8--8--8--9--9--9--9--7-7-7-5-|

-----------------------------------------------------------------|
-----------------------------------------------------------------|
-----------------------------------------------------------------|x4
---7-7-7-7-7-7-7-6-6-6-6-6-6-6-6-4-4-4-4-4-4-4-4-9-9-9-9-9-9-9-9-|
---7-7-7-7-7-7-7-7-7-7-7-7-7-7-7-4-4-4-4-4-4-4-4-9-9-9-9-9-9-9-9-|
---5-5-5-5-5-5-5-4-4-4-4-4-4-4-4-2-2-2-2-2-2-2-2-7-7-7-7-7-7-7-7-|

e|------------|
B|------------|
G|-9----------|
D|-9----------|
A|-7----------|
E|------------|

pm=palm mute
/=slide





Comments


Popular Five Iron Frenzy tabs & chords
Banner Year Bass Tabs
Combat Chuck Bass Tabs
Cool Enough For You 1 Bass Tabs
Get Your Riot Gear Bass Tabs
No 16 Bass Tabs
Wizards Need Food Badly Bass Tabs
My Evil Plan To Save The World Tabs
Phantom Mullet Tabs
Riot Gear (Intro) Tabs
Ugly Day Tabs


Song lyrics



↑ Back to top | Tablatures and chords are parodies/interpretations of the original songs. You may use it for private study, scholarship, research or language learning purposes only
© 2014 AZChords.com Contact us | Privacy policy | DMCA | Add/correct tabs | Request tabs | Top 50 tabs