» » »

Five Iron Frenzy, Combat Chuck Tabs (ver.1)

Artists:  A B C D E F G H I J K L M N O P Q R S T U V W X Y Z # 

Combat Chuck Tabs (ver.1)

Five Iron Frenzy Tabs
Rating:
0/5 (0 votes)
Combat Chuck lessons Tabs too difficult? Try these video lessons and learn fast
                


Riff A

|-3-xx-3-xx-5-6-5-6-|-3-xx-3-xx-5-6-5-6-|
|-3-xx-3-xx-5-6-5-6-|-3-xx-3-xx-5-6-5-6-|
|-4-xx-4-xx-6-7-6-7-|-4-xx-4-xx-6-7-6-7-|
|-5-xx-5-xx-7-8-7-8-|-5-xx-5-xx-7-8-7-8-|
|-------------------|-------------------|
|-------------------|-------------------|


Riff B

|-----------------------------|
|-----------------------------|
|--------55-5-5-33-3-3--------|
|-55-5-5-55-5-5-33-3-3-33-3-3-|
|-55-5-5-33-3-3-11-1-1-33-3-3-|
|-33-3-3---------------11-1-1-|


Bridge

  Hold the chords
|-3--------|-3-------|- x4 then  -|-3--------|-1--3----|
|-3--------|-5-------|-          -|-3--------|-1--5----|
|-4--------|-5-------|-          -|-4--------|-2--5----|
|-5--------|-5-------|-          -|-5--------|-3--5----|
|-5--------|-3-------|-          -|-5--------|-3--3----|
|-3--------|---------|-          -|-3--------|-1-------|

|-3-3-x-3-x-3-x-3-|-3-3-x-3-x-3-x-3-|-1-1-x-1-x-1-x-1-|-1-1-x-1-x-1-x-1-|
|-3-3-x-3-x-3-x-3-|-3-3-x-3-x-3-x-3-|-1-1-x-1-x-1-x-1-|-1-1-x-1-x-1-x-1-|
|-4-4-x-4-x-4-x-4-|-4-4-x-4-x-4-x-4-|-2-2-x-2-x-2-x-2-|-2-2-x-2-x-2-x-2-|
|-5-5-x-5-x-5-x-5-|-5-5-x-5-x-5-x-5-|-3-3-x-3-x-3-x-3-|-3-3-x-3-x-3-x-3-|
|-----------------|-----------------|-----------------|-----------------|
|-----------------|-----------------|-----------------|-----------------|


Ending

 Hold ====>>
|-3--------|
|-3--------|
|-4--------|
|-5--------|
|-5--------|
|-3--------|



Order

Riff A x6
Riff B x4
Riff A x4
Riff B x4
Bridge x1
Riff A x4
Riff B x4
Ending x1

Have fun!
            

comments powered by Disqus
↑ Back to top | Five Iron Frenzy Tabs for Combat Chuck. Lyrics for acoustic guitar and electric guitar. Tablatures and chords are parodies/interpretations of the original songs. You may use it for private study, scholarship, research or language learning purposes only