» » »

Five Iron Frenzy, Chew Water Tabs (ver.1)

Artists:  A B C D E F G H I J K L M N O P Q R S T U V W X Y Z # 

Chew Water Tabs (ver.1)

Five Iron Frenzy Tabs
Rating:
0/5 (0 votes)
Chew Water lessons Tabs too difficult? Try these video lessons and learn fast
                This is definastly the best song on the cheeses of nazareth.  Especially special to 
me cause I hate country music.  Anyway here it is.

e-----2-22-2-----2-22-2-----2-22-2-----------
B-----3-33-3-----3-33-3-----3-33-3-----------
G-----2-22-2-----2-22-2-----2-22-2-----------
D--0---------------------0-------------------
A-------------0---------------------0--2--4--
E--------------------------------------------

e-----2-22-2-----2-22-2-----2-22-2-----------
B-----3-33-3-----3-33-3-----3-33-3-----------
G-----2-22-2-----2-22-2-----2-22-2-----------
D--0---------------------0-------------------
A-------------0---------------------0--2--4--
E--------------------------------------------

e-----2-22-2-----2-22-2-----2-22-2-----------
B-----3-33-3-----3-33-3-----3-33-3-----------
G-----2-22-2-----2-22-2-----2-22-2-----------
D--0---------------------0----------0--------
A-------------0------------------------4--2--
E--------------------------------------------

e--------------------------------------------
B-----2-22-2-----2-22-2-----2-22-2-----------
G-----2-22-2-----2-22-2-----2-22-2-----------
D-----2-22-2-----2-22-2-----2-22-2-----------
A--0---------------------0----------0--2--4--
E-------------0------------------------------

e-----2-22-2-----2-22-2-----2-22-2-----------
B-----3-33-3-----3-33-3-----3-33-3-----------
G-----2-22-2-----2-22-2-----2-22-2-----------
D--0---------------------0----------0--2--4--
A-------------0------------------------------
E--------------------------------------------

e-----3-33-3-----3-33-3-----3-33-3-----------
B-----3-33-3-----3-33-3-----3-33-3-----------
G--0---------------------0----------0--------
D-------------0------------------------4--2--
A--------------------------------------------
E--------------------------------------------

e-----2-22-2-----2-22-2-----2-22-2-----------
B-----3-33-3-----3-33-3-----3-33-3-----------
G-----2-22-2-----2-22-2-----2-22-2-----------
D--0---------------------0----------0--------
A-------------0------------------------4--2--
E--------------------------------------------

e--------------------------------------------
B-----2-22-2-----2-22-2-----2-22-2-----------
G-----2-22-2-----2-22-2-----2-22-2-----------
D-----2-22-2-----2-22-2-----2-22-2-----------
A--0---------------------0----------0--2--4--
E-------------0------------------------------

e-----2-22-2-----2-22-2-----2-22-2-----------
B-----3-33-3-----3-33-3-----3-33-3-----------
G-----2-22-2-----2-22-2-----2-22-2-----------
D--0---------------------0-------------------
A-------------0---------------------0--2--4--
E--------------------------------------------

e-----2-22-2-----2-22-2-----2-22-2-----------
B-----3-33-3-----3-33-3-----3-33-3-----------
G-----2-22-2-----2-22-2-----2-22-2-----------
D--0---------------------0-------------------
A-------------0---------------------0--2--4--
E--------------------------------------------

e--2--
B--3--
G--2--
D--0--
A-----
E-----


Play In Chri
            

comments powered by Disqus
↑ Back to top | Five Iron Frenzy Tabs for Chew Water. Lyrics for acoustic guitar and electric guitar. Tablatures and chords are parodies/interpretations of the original songs. You may use it for private study, scholarship, research or language learning purposes only