>
 >
Canonball

Canonball Bass Tabs

Five Iron Frenzy - Canonball chords, tabs, tablatures, lyrics

Guitar lessons | Add/correct | Request | Top 50 tabs Artists:  A B C D E F G H I J K L M N O P Q R S T U V W X Y Z 0-9

Canonball Bass Tabs – Five Iron Frenzy

CD, Sheet music, Poster

Do you like Canonball? Share with your friends now
Bass Tabs

   r = let ring           () = last note fade to end
Intro:
G----------------------------------------
D----------------------------------------
A-22-22-22-22-22----------22-22-22-22-22-
E----------------------------------------

Verse:
G-----------------
D-----------------
A-2-0-5-0-7-5---5- x4
E-------------3---

Pre-chorus:
"and that is how..."
G-----------------------
D-----------------22----
A-0000-33----0000----22- x2
E--------44-------------

Chorus:
"Hulking smashing..."
G------------------------------------------
D------------------------------------------
A-7777-7777--2222-22210----------5555-5456-
E----------------------43333-3333----------

Intro
Verse
Pre-chorus
Chorus x2
                    this section  
Bridge: (slow)       \  x2   /   
G-----------|--------------------|
D-----------|------------22------|
A---44---44-|---44--44-0------22-|
E-2----2----|-2----2--------0----|
                            
G---------------------|-----------|
D-------------22------|-----------|
A---44---44-0------77-|---22---22-|
E-2----2---------5----|-0----0----|

after:
A-4---5--5-
E---4------

Bridge2:
G---------------------------------------------------
D-4444-----------2222---------------------2222------
A------4444-0000------2222---------------------2222- x2
E--------------------------2222-4444-5555-----------

Outro:
G---------------------------------
D----------------0-3-4-5-7-5-(4r)-
A-0-3-4-5-4-3-2------------------- x4
E---------------------------------





Comments


Popular Five Iron Frenzy tabs & chords
Combat Chuck 2 Bass Tabs
I Feel Lucky Bass Tabs
Milestone Bass Tabs
Arnold Willis And Mr Drummond Tabs
Handbook For The Sellout Tabs
Juggernaut Intro Tabs
Phantom Mullet (Solo) Tabs
Pre-ex-girlfriend 1 Tabs
Every New Day Ukulele
Handbook For The Sellout Ukulele


Song lyrics



↑ Back to top | Tablatures and chords are parodies/interpretations of the original songs. You may use it for private study, scholarship, research or language learning purposes only
© 2014 AZChords.com Contact us | Privacy policy | DMCA | Add/correct tabs | Request tabs | Top 50 tabs