» » »

At Least Im Not Like Those Other Old Gu Bass tabs (ver.1)

Artists:  A B C D E F G H I J K L M N O P Q R S T U V W X Y Z # 

At Least Im Not Like Those Other Old Gu Bass tabs (ver.1)

Five Iron Frenzy
Rating:
0/5 (0 votes)

Hard to play? Try these video lessons and learn fast.
                
          r = let ring      () = last note fade to end

Intro:         x3             whole intro x2
G-----------------|---------
D-----------------|---------
A-----------------|---------  
E-55--78-5654-2-0-|-1-1-2-1-

Verse:
G---------------------------------
D---------------------------------
A-----------------7-7-7-7-9-9-9-9-
E-5-5-5-5-7-7-7-7-----------------

G---------------------------------
D---------------------------------
A-----------------7-7-7-7-6-6-6-6- whole verse x2
E-5-5-5-5-7-7-7-7-----------------

Pre-chorus:
G---------------------------------
D---------------------------------
A-4-4-4-4-2-2-2-2-0-0-0-0-1-1-1-1- x2
E---------------------------------

Chorus Pt 1:
G------------------------------------------
D------------------------------------------
A-8-8-8-8----------10-10-10-10------------- 
E---------8-8-8-8--------------10-10-10-10-

Chorus Pt 2:
G-------------------------------
D-------------------------------
A-6---8--86789r-5r-10r-3r-1r-5r-
E---7---------------------------

Intro
Verse
Pre-chorus
Chorus Pt1
Chorus Pt2 x3
            
Hard to play? Try these video lessons and learn fast. | Correct




comments powered by Disqus
↑ Back to top | Tablatures and chords are parodies/interpretations of the original songs. You may use it for private study, scholarship, research or language learning purposes only