>
 >
Arnold Willis And Mr Drummond

Arnold Willis And Mr Drummond Guitar Tabs

Five Iron Frenzy - Arnold Willis And Mr Drummond chords, tabs, tablatures, lyrics

Guitar lessons | Add/correct | Request | Top 50 tabs Artists:  A B C D E F G H I J K L M N O P Q R S T U V W X Y Z 0-9

Arnold Willis And Mr Drummond Guitar Tabs – Five Iron Frenzy

CD, Sheet music, Poster

Do you like Arnold Willis And Mr Drummond? Share with your friends now
Bass TabsBass Tabs v2Tabs
----------------------------------------------------------------------------
               ARNOLD, WILLIS & MR. DRUMMOND - Five Iron Frenzy
----------------------------------------------------------------------------

Tuning: Standard

haha...a little background...for the longest time i thought it was arnold and willis and
MRS. drummond, and that different strokes was about a LOVE TRIANGLE, and we'd always go
around and say to jen, josh and braden, "you're just like a true-life arnold, willis and
mrs. drumond!"
that's all.

  Intro
e|-----------------------------------------|
B|-----------------------------------------|
G|----------------9------------------------|
D|--7.----6-7.----9-7.----6-7--7-77-7-7-7--|
A|--7.----6-7.----7-7.----6-7--7-77-7-7-7--|
E|--5.----4-5.------5.----4-5--5-55-5-5-5--|

e|---------------------------------------------|
B|---------------------------------------------|
G|------------7-77------------------7-77--9-9--|  
D|--7-7--4-4--7-77--6-6---7-7--4-4--7-77--9-9--|  (x4).
A|--7-7--4-4--5-55--6-6---7-7--4-4--5-55--7-7--|
E|--5-5--2-2--------4-4---5-5--2-2-------------|

  Verse
    A  &  G
e|--5-----3--|
B|--5-----3--|
G|--6-----4--|  (x4). 
D|--7-----5--| 
A|-----------|
E|-----------|

  Prechorus
e|-------------------------------------------------------------------------|
B|-------------------------------------------------------------------------|
G|--4-4-4-4-----------------------------4-4-4-4----------------------------|
D|--4-4-4-4--5-5-5-5--7-7-7-7--4-4-4-4--4-4-4-4--5-5-5-5--7-7-7-7--8-8-8---|
A|--2-2-2-2--5-5-5-5--7-7-7-7--4-4-4-4--2-2-2-2--5-5-5-5--7-7-7-7--8-8-8---|
E|-----------3-3-3-3--5-5-5-5--2-2-2-2-----------3-3-3-3--5-5-5-5--6-6-6---|

  Chorus
e|-------------------------------------------------------------------------|
B|-----------------------------------(x3)----------------------------------|
G|--9-9-9-9-------------------1111111----9-9-9-9---------------------------|
D|--9-9-9-9-11111111-12121212-1111111----9-9-9-9-1111111-12121212-9-9-9-9--|
A|--7-7-7-7-11111111-12121212-9-9-9-9----7-7-7-7-1111111-12121212-9-9-9-9--|
E|----------9-9-9-9--10101010--------------------9-9-9-9-10101010-7-7-7-7--|

o play intro
o play verse
o play prechorus
o play chorus

  Bridge (ska guitar)
    A  C#m  B   F#      A  C#m  B   F#
e|--5---4---7---2---------------------------|
B|--5---5---7---2---------------------------|
G|--6---6---8---3--(x2)---------4-----------|
D|--7---6---9---4-------7---6---4---4-(x8)--|
A|----------------------7---7---2---4-------|
E|----------------------5---4-------2-------|

  Bridge (lead guitar)
e|------------------------------------------------|
B|------------------------------------------------|
G|---------------6-7-9-9-7-6----------------------|
D|--(7--7-7)-7-7-------------9-9-7-6-----6-6-(x8)-|
A|-----------------------------------9-9----------|
E|------------------------------------------------|

o play intro (aka: outro.)


| /  slide up
| \  slide down
| h  hammer-on
| p  pull-off
| ~  vibrato
| +  harmonic
| x  Mute note
============================================================================





Comments


Popular Five Iron Frenzy tabs & chords
A Flowery Song 1 Bass Tabs
Banner Year 1 Bass Tabs
Combat Chuck 1 Bass Tabs
Cool Enough For You Bass Tabs
Dandelions Bass Tabs
Handbook For The Sellout 1 Bass Tabs
Litmus 1 Bass Tabs
A Flowery Song Tabs
American Kryptonite Tabs
World Without An End Ukulele


Song lyrics



↑ Back to top | Tablatures and chords are parodies/interpretations of the original songs. You may use it for private study, scholarship, research or language learning purposes only
© 2014 AZChords.com Contact us | Privacy policy | DMCA | Add/correct tabs | Request tabs | Top 50 tabs