>
 >
American Kryptonite

American Kryptonite Guitar Tabs

Five Iron Frenzy - American Kryptonite chords, tabs, tablatures, lyrics

Guitar lessons | Add/correct | Request | Top 50 tabs Artists:  A B C D E F G H I J K L M N O P Q R S T U V W X Y Z 0-9

American Kryptonite Guitar Tabs – Five Iron Frenzy

CD, Sheet music, Poster

Do you like American Kryptonite? Share with your friends now
Tabs
----------------------------------------------------------------------------
----------------------------------------------------------------------------

Tuning: Standard

| /   slide up
| \   slide down
| h   hammer-on
| p   pull-off
| ~   let ring
| <>  harmonic
| x   Mute note
| *   Palm mute

This is an awesome song off of "The End is Near", which is FiF's last--and best--album.
ever. that's right.___.

...ok, so that's all you really need to know unless you're new at electric guitar
like me and don't know what a harmonic is...like me...before...well so if you
don't know what a harmonic is just try to LIGHTLY, BARELY touch the E string
right between the 3rd and 4th fret and strike the string hard and it should make
the sound it makes in the song.

 Intro

e|-----------------------|
B|-----------------------|
G|-----------------------|
D|-----------------------| (x8) then it goes to
A|-----------------------|
E|--0-0-<3>-0-0-0-<3>-0--|


e|-------------------|
B|-------------------|
G|-------------------|
D|--2-2-2-x-2-2-2-x--|  (x8)
A|--2-2-2-x-2-2-2-x--|
E|--0-0-0-x-0-0-0-x--|

 Verse

e|------------------------------------------|
B|------------------------------------------|
G|------------555--555----------------------|       
D|--222--222--555--555--555--555--777--777--|  (x2) 
A|--222--222--333--333--555--555--777--777--|
E|--000--000------------333--333--555--555--|
    ***  ***  ***  ***  ***  ***  ***  ***
 then (x2) again but without the palm muting

 Chorus

e|----------------------------------|
B|----------------------------------|
G|--44--44--------------------------|
D|--444444-555555-7777777777777777--|  (x2)
A|--224422-555555-5554445554445544--|
E|----22---333333-------------------|

    Everything will end alright       American Krypto nite
e|-------------------------------------------------------------------------|
B|-------------------------------------------------------------------------|
G|--444444--------777777------------------------------7-7~-----------------|
D|--444444-555555-777777-777777-------55555555--7777--7-7~-----------------|
A|--222222-555555-555555-777777-------55555555--7777--5-5~-----------------|
E|---------333333--------555555-------33333333--5555--5-5~-----------------|

Then basically play everything you just played over again. and it's time for the bridge.

  *BRIDGE*!
                 
   blah blah                              blah blah...themselves
e|-------------------------------------------------------------------------|
B|-------------------------------------------------------------------------|
G|--9---7---7---11-9-3--(x2)--99999999-77777777----------------------------|
D|--x---x---x---x--x-x--------xxxxxxxx-xxxxxxxx-99999999-1010101010101010--|
A|--7---5---5---9--7-5--------77777777-55555555-xxxxxxxx-x-x-x-x-x-x-x-x---|
E|----------------------------------------------77777777-8-8-8-8-8-8-8-8---|

    buy    take    break   throw it away
e|----------------------------------|
B|----------------------------------|
G|----------------------------------|
D|--22-x-x--22-x-x--22-x-x--22-x-x--|
A|--22-x-x--22-x-x--22-x-x--22-x-x--|
E|--00-x-x--00-x-x--00-x-x--00-x-x--|

    buy       take       break       throw it away
e|---------------------------------------------------|
B|---------------------------------------------------|
G|-------------------------------------------10------|
D|--22x-9-8-7-x22x-7-6-5-x22x-5-4-3-x22x-7-9----8-9--| (x3)
A|--22x-------x22x-------x22x-------x22x-------------|
E|--00x-------x00x-------x00x-------x00x-------------|

    throw it away...
e|---------------------------|
B|---------------------------|
G|---------------------------|
D|--22x222x222x222x----------|  
A|--22x222x222x222x----------|
E|--00x000x000x000x .........|

then play the chorus and then you're done!
============================================================================





Comments


Popular Five Iron Frenzy tabs & chords
A Flowery Song Bass Tabs
Arnold Willis And Mr Drumond 1 Bass Tabs
Banner Year Bass Tabs
Blue Comb '78 Bass Tabs
Get Your Riot Gear Bass Tabs
Most Likely To Succeed 1 Bass Tabs
Sweet Talking Woman Bass Tabs
Farewell To Arms 2 Tabs
O Canada Tabs
Dandelions Ukulele


Song lyrics



↑ Back to top | Tablatures and chords are parodies/interpretations of the original songs. You may use it for private study, scholarship, research or language learning purposes only
© 2014 AZChords.com Contact us | Privacy policy | DMCA | Add/correct tabs | Request tabs | Top 50 tabs