» » »

Five Iron Frenzy, Amalgamated Bass tabs (ver.1)

Artists:  A B C D E F G H I J K L M N O P Q R S T U V W X Y Z # 

Amalgamated Bass tabs (ver.1)

Five Iron Frenzy Tabs
 Rating:
4/5 (4 votes)
Amalgamated lessons Tabs too difficult? Try these video lessons and learn fast
1
                Intro:
G: --------------------------------
D: -----4>----------4>-------------
A: --5>----2>-0>-5>----2>----------
E: -----------------------3>-5>----

Verse:
G: ------------3-6-3--------------------
D: ----4-7-4-4---------0-4-0------------
A: --5---------------2----------4-7-4---
E: ---------------------------5---------

Chorus:
G: -------------------------------
D: -------------------------------
A: -----5-2-----7-4----9-7----4-7-
E: --33------55-----77-----55-----

G: -------------------------------
D: -------------------------------
A: -----5-2----74---4-7----4-5-7--
E: --33-----55----55----55--------

G: ----------------------------------
D: ----------------------------------
A: ----2-5-2---4-7-4---6-9-6---7-5-4-
E: --3-------5-------7-------5-------

G: ---------------------
D: ---------------------
A: ------5-2---4-7-4-5--
E: --3-3-----5----------

Bridge
G: ----------------------------------
D: ------------4-1-------------------
A: ---4-5-7--2-----2---2-5-2--4-7-4--
E: --5---------------3-------5-------
            
Submit corrections

comments powered by Disqus
↑ Back to top | Five Iron Frenzy Bass for Amalgamated. Lyrics for acoustic guitar and electric guitar. 1 Tablatures and chords are parodies/interpretations of the original songs. You may use it for private study, scholarship, research or language learning purposes only