» » »

Riddle Tabs (ver.1)

Artists:  A B C D E F G H I J K L M N O P Q R S T U V W X Y Z # 

Riddle Tabs (ver.1)

Five For Fighting
Rating:
4/5 (3 votes)

Tabs too difficult? Try these video lessons and learn fast.
                Tuning: Standard
Capo 1st fret (for the chords)  (actual tabs not in relation to capo)

Chords Used:
A       X02220
Aadd2   X02200
Asus4   X02230
F#m     244222
F#m7    244220
D       XX0232
D2      XX0230
Esu4    002200  
E       022100
E7sus4  000430
A/G#    402220
G       320003


Intro: (again not in relation to capo)
e|-10----10--8---8----11----11--10--10----10----10--8---8----11----11--10--10----|
B|--6--6-----4---4--8--8--8------6---6--6--6--6-----4---4--8--8--8------6---6--6-|
G|-------------------------------------------------------------------------------|
D|-------------------------------------------------------------------------------|
A|-------------------------------------------------------------------------------|
E|-------------------------------------------------------------------------------|

Verse 1
e|-10----10--8---8----11----11--10--10----|
B|--6--6-----4---4--8--8--8------6---6--6-|
G|----------------------------------------|    Play 3 Times
D|----------------------------------------|
A|----------------------------------------|
E|----------------------------------------|

On The 4th Time Play:
e|-10----10--8---8-----6----6--6--5---11--|
B|--6--6-----4---4--3--3--3----3--2-------|
G|----------------------------------------|    
D|----------------------------------------|
A|----------------------------------------|
E|----------------------------------------|

e|-10----10--8---8----11----11--10--10----|
B|--6--6-----4---4--8--8--8------6---6--6-|
G|----------------------------------------|    Play 3 Times
D|----------------------------------------|
A|----------------------------------------|
E|----------------------------------------|

On The 4th Time Play:
e|-10----10--8---8-----6----5-5-5-5-5p3-5p3-5-1-1--|
B|--6--6-----4---4--3--3--3-2-2-2-2-2p1-2p1-2------|
G|--------------------------------------------3-3--|    
D|-------------------------------------------------|
A|-------------------------------------------------|
E|-------------------------------------------------|

Chorus: See Chord Chart At Top

      D
Then he said,
         E
Here's a riddle for you
A        F#m7
Find the Answer
         D       D2     E
There's a reason for the world

You and I...

Verse 2
e|-10----10--8---8----11----11--10--10----|
B|--6--6-----4---4--8--8--8------6---6--6-|
G|----------------------------------------|    Play 3 Times
D|----------------------------------------|
A|----------------------------------------|
E|----------------------------------------|

On The 4th Time Play:
e|-10----10--8---8-----6----6--6--5---11--|
B|--6--6-----4---4--3--3--3----3--2-------|
G|----------------------------------------|    
D|----------------------------------------|
A|----------------------------------------|
E|----------------------------------------|

e|-10----10--8---8----11----11--10--10----|
B|--6--6-----4---4--8--8--8------6---6--6-|
G|----------------------------------------|    Play 3 Times
D|----------------------------------------|
A|----------------------------------------|
E|----------------------------------------|

On The 4th Time Play:
e|-10----10--8---8-----6----5-5-5-5-5p3-5p3-5-1-1--|
B|--6--6-----4---4--3--3--3-2-2-2-2-2p1-2p1-2------|
G|--------------------------------------------3-3--|    
D|-------------------------------------------------|
A|-------------------------------------------------|
E|-------------------------------------------------|


Chorus:

         D
And Hey Dad
          E
Here's a riddle for you
Aadd2       F#m7
Find the Answer
         D              E
There's a reason for the world
        A    A/G# 
You and I...
 
Bridge:

I said, 
 D      E     
Son for all I've told you
A     A/G#       F#m
When you get right down to the
D           D2        E
Reason for the world...
           A  Aadd2  Asus4 A          
Who am I?

D         E              A                 F#m
There are secrets that we still have left to find
D             E                A             G
There have been mysteries from the beginning of time
D        E                A              F#
There are answers we're not wise enough to see
          D                            E7sus4    E   E7sus4   E 
He said... You looking for a clue I Love You free...

Verse 3
e|-10----10--8---8----11----11--10--10----|
B|--6--6-----4---4--8--8--8------6---6--6-|
G|----------------------------------------|    Play 3 Times
D|----------------------------------------|
A|----------------------------------------|
E|----------------------------------------|

On The 4th Time Play:
e|-10----10--8---8-----6----6--6--5---11--|
B|--6--6-----4---4--3--3--3----3--2-------|
G|----------------------------------------|    
D|----------------------------------------|
A|----------------------------------------|
E|----------------------------------------|

e|-10----10--8---8----11----11--10--10----|
B|--6--6-----4---4--8--8--8------6---6--6-|
G|----------------------------------------|    Play 3 Times
D|----------------------------------------|
A|----------------------------------------|
E|----------------------------------------|

On The 4th Time Play:
e|-10----10--8---8-----6----5-5-5-5-5p3-5p3-5-1-1--|
B|--6--6-----4---4--3--3--3-2-2-2-2-2p1-2p1-2------|
G|--------------------------------------------3-3--|    
D|-------------------------------------------------|
A|-------------------------------------------------|
E|-------------------------------------------------|


Chorus
D        E 
Here's a riddle for you
Aadd2      F#m
Find the Answer
          D2          E
There's a reason for the world

You and I...

Outro
e|-10----10--8---8----11----11--10--10----10----10--8---8----11----11--10--10----|
B|--6--6-----4---4--8--8--8------6---6--6--6--6-----4---4--8--8--8------6---6--6-|
G|-------------------------------------------------------------------------------|
D|-------------------------------------------------------------------------------|
A|-------------------------------------------------------------------------------|
E|-------------------------------------------------------------------------------|

Lyrics:

There was a man back in '95
Whose heart ran out of summers
But before he died, I asked him

Wait, what's the sense in life
Come over me, Come over me

He said,

Son why you got to sing that tune
Catch a Dylan song or some eclipse of the moon
Let an angel swing and make you swoon
Then you will see... You will see

Then he said,

Here's a riddle for you
Find the Answer
There's a reason for the world
You and I...

Picked up my kid from school today

Did you learn anything cause in the world today
You can't live in a castle far away
Now talk to me, come talk to me

He said,

Dad I'm big but we're smaller than small
In the scheme of things, well we're nothing at all
Still every mother's child sings a lonely song
So play with me, come play with me

And Hey Dad
Here's a riddle for you
Find the Answer
There's a reason for the world
You and I...

I said,

Son for all I've told you
When you get right down to the
Reason for the world...
Who am I?

There are secrets that we still have left to find
There have been mysteries from the beginning of time
There are answers we're not wise enough to see

He said... You looking for a clue I Love You free...

The batter swings and the summer flies
As I look into my angel's eyes
A song plays on while the moon is high over me
Something comes over me

I guess we're big and I guess we're small
If you think about it man you know we got it all
Cause we're all we got on this bouncing ball
And I love you free
I love you freely

Here's a riddle for you
Find the Answer
There's a reason for the world
You and I... 
            
Tabs too difficult? Try these video lessons and learn fast.




comments powered by Disqus
↑ Back to top | Tablatures and chords are parodies/interpretations of the original songs. You may use it for private study, scholarship, research or language learning purposes only