» » »

Superman Tabs (ver.3)

Artists:  A B C D E F G H I J K L M N O P Q R S T U V W X Y Z # 

Superman Tabs (ver.3)

Five For Fighting
Rating:
4/5 (4 votes)

Hard to play? Try these video lessons and learn fast.
                Superman
By Five For Fighting

questions whatsoever. Its my first tab so i hope this helps.

Instructions: (play according to order)
Play Intro (1st)----2X
Play Intro (2nd)----1x after playing one line on the intro(1st)
Verse & Chorus
Break
Verse
End-(This is done by playing intro again and end with a C)*

_________________________________________________________________

Just in Case: 

-------	<6th String (the highest pitch)
-------	<
-------	<
-------	<
-------	<
-------	<1st String (the lowest pitch)

_________________________________________________________________

Intro:
(First Guitar)(1st)

----------------------------------------------------------------
--------1-1-1-3------3-3----------1-1-3-------1-1---------------
------0------------0-----0------2-----------2-----2-------------
----2------------0------------2-----------3---------3-----------
--3-------------------------0-----------------------------------
---------------3------------------------1-----------------------

(Second Guitar)(2nd)

--8--8--8--8---7--7--7--7---5--5--5--5----------
---8--8--8--8---8--8--8--8---8--8--8--8---------
------------------------------------------------
------------------------------------------------
------------------------------------------------
------------------------------------------------

--7--7--7--7-------
---8--8--8--8------
--------------------
--------------------
--------------------
--------------------


_______________________________________________________________

Chords:

 C    G    Am   F   D

-0----3----0----1---2--
-1----3----1----1---3--
-0----0----2----2---2--
-2----0----2----3---0--
-3----2----0----3---x--
-x----3----0----1---x--


_______________________________________________________________

Verse & Chorus:


C	 	 G
I can't stand to fly
Am		   F
I'm not that naive
C		G
I'm just out to find
Am		      F
The better part of me


		C		       G
I'm more than a bird...I'm more that a plane
	      Am		  F
More than some pretty face beside a train
	 C	 G   F        C
It's not easy to be me


C		  G
Wish that I could cry
Am	     F
Fall upon my knees
C	      G
Find a way to lie
	   Am			 F
About a home I'll never see


	     C		            G
It may sound absurd...but don't be naive
     Am		        F
Even heroes have the right to bleed
		  C		      G
I may be disturbed...but won't you concede
	 Am	       F
Even heroes have the right to dream
	    C	 G   F  C G
It's not easy to be me



Bridge:

Am     G	     F	      Am
Up, up ahead away...away from me
	  D		 Am	         D
It's all right...you can all sleep sound tonight

	    F		     G
I'm not crazy...or anything...

Verse: (C,Am,F,G)

I can't stand to fly
I'm not that naive
Men weren't meant to ride
With clouds between their knees

I'm only a man in a silly red sheet
Digging for kryptonite on this one-way street
Only a man in a funny red sheet
Looking for special things inside of me

It's not easy to be...me.

*(play intro again and end with a C)
            
Hard to play? Try these video lessons and learn fast. | Correct




comments powered by Disqus
↑ Back to top | Tablatures and chords are parodies/interpretations of the original songs. You may use it for private study, scholarship, research or language learning purposes only