» » »

Five For Fighting, Superman Bass tabs (ver.1)

Artists:  A B C D E F G H I J K L M N O P Q R S T U V W X Y Z # 

Superman Bass tabs (ver.1)

Five For Fighting Tabs
Rating:
0/5 (0 votes)
Superman lessons Tabs too difficult? Try these video lessons and learn fast
                                                   Superman                                     





     W                   W                   W                 
G||-------------------|-------------------|-------------------|
D||-------------------|-------------------|-------------------|
A||-------------------|-------------------|-------------------|
E||-------------------|-------------------|-------------------|


  W                   W                   W                   W                 
-------------------|-------------------|-------------------|-------------------|
-------------------|-------------------|-------------------|-------------------|
-------------------|-------------------|-------------------|-------------------|
-------------------|-------------------|-------------------|-------------------|


  W                   W                   W                   W                 
-------------------|-------------------|-------------------|-------------------|
-------------------|-------------------|-------------------|-------------------|
-------------------|-------------------|-------------------|-------------------|
-------------------|-------------------|-------------------|-------------------|


  W                   W                   W                   W                 
-------------------|-------------------|-------------------|-------------------|
-------------------|-------------------|-------------------|-------------------|
-------------------|-------------------|-------------------|-------------------|
-------------------|-------------------|-------------------|-------------------|


  W                   W                   H        H         
-------------------|-------------------|--------------------|
-------------------|-------------------|--------------------|
-------------------|-------------------|--------------------|
-------------------|-------------------|--8--------L--------|


  W                   Q    Q    Q    Q       W                 
-------------------|----------------------|-------------------|
-------------------|----------------------|-------------------|
-------------------|----------------------|-------------------|
--3----------------|--5----L----L----0----|--1----------------|


  W                   H        H           Q    E  E  Q    Q       H         
-------------------|--------------------|-----------------------|-----------|
-------------------|--------------------|-----------------------|-----------|
-------------------|--------------------|-----------------------|-----------|
--8----------------|--3--------1--------|--L----L--L--8----L----|-----------|


  W                   W                   W                   W                 
-------------------|-------------------|-------------------|-------------------|
-------------------|-------------------|-------------------|-------------------|
-------------------|-------------------|-------------------|-------------------|
--8----------------|--3----------------|--5----------------|--1----------------|


  W                   W                   W                   W                 
-------------------|-------------------|-------------------|-------------------|
-------------------|-------------------|-------------------|-------------------|
-------------------|-------------------|-------------------|-------------------|
--8----------------|--3----------------|--5----------------|--1----------------|


  H        H           W                   Q    Q    Q    Q     
--------------------|-------------------|----------------------|
--------------------|-------------------|----------------------|
--------------------|-------------------|----------------------|
--8--------L--------|--3----------------|--5----L----L----0----|


  W                   H        H           W                 
-------------------|--------------------|-------------------|
-------------------|--------------------|-------------------|
-------------------|--------------------|-------------------|
--1----------------|--8--------L--------|--3----------------|


  Q    Q    Q    Q       W                   W                 
----------------------|-------------------|-------------------|
----------------------|-------------------|-------------------|
----------------------|-------------------|-------------------|
--5----L----L----0----|--1----------------|--8----------------|


  H        H           Q    E  E  Q    Q       H           H        H         
--------------------|-----------------------|-----------|--------------------|
--------------------|-----------------------|-----------|--------------------|
--------------------|-----------------------|-----------|--------------------|
--3--------1--------|--L----L--L--8----L----|--7--------|--5--------7--------|


  H         H           W                    W                 
---------------------|-------------------|--------------------|
---------------------|-------------------|--------------------|
---------------------|-------------------|--------------------|
--8--------10--------|--5----------------|--10----------------|


  W                    W                   Q    E  Q    E  Q     
-------------------|--------------------|-----------------------|
-------------------|--------------------|-----------------------|
-------------------|--------------------|--8----L----------8----|
--8----------------|--10----------------|----------8----L-------|


  H        H           W                   W                 
--------------------|-------------------|-------------------|
--------------------|-------------------|-------------------|
--L--------L--------|-------------------|-------------------|
--------------------|--3----------------|-------------------|


  W                   W                   W                   W                 
-------------------|-------------------|-------------------|-------------------|
-------------------|-------------------|-------------------|-------------------|
-------------------|-------------------|-------------------|-------------------|
-------------------|-------------------|-------------------|-------------------|


  W                   W                   W                 
-------------------|-------------------|-------------------|
-------------------|-------------------|-------------------|
-------------------|-------------------|-------------------|
-------------------|-------------------|-------------------|


  Q      E   Q    E  Q       Q    E   Q    E  Q       Q    Q    Q     Q     
--------------------------|------------------------|-----------------------|
--------------------------|------------------------|-----------------------|
--------------------------|------------------------|-----------------------|
--8h-----L--15----L--7----|--3----L--15----L--3----|--5----7----8----12----|


   H        Q    Q       Q      E   Q    E  Q       Q    E   Q    E  Q     
----------------------|--------------------------|------------------------|
----------------------|--------------------------|------------------------|
----------------------|--------------------------|------------------------|
--13--------L----3----|--8h-----L--15----L--7----|--3----L--15----L--3----|


  Q    Q    Q     Q        Q    E   S  S   E   E   E   E   
-----------------------|----------------------------------|
-----------------------|----------------------------------|
-----------------------|----------------------------------|
--5----7----8----12----|--13----L--15-15h-17--15--17--15--|


  Q      E   Q    E  Q       Q    E   Q    E  Q       Q    Q    Q     Q     
--------------------------|------------------------|-----------------------|
--------------------------|------------------------|-----------------------|
--------------------------|------------------------|-----------------------|
--8h-----L--15----L--8----|--7----L--15----L--7----|--5----7----8----12----|


   Q    E   S  S   E   E  E  E     Q      E   Q    E  Q     
--------------------------------|--------------------------|
--------------------------------|--------------------------|
--------------------------------|--------------------------|
--13----L--15-15h-17--15--3--5--|--8h-----L--15----L--8----|


  Q    E   Q    E  Q       Q    Q    Q     Q     
------------------------|-----------------------|
------------------------|-----------------------|
------------------------|-----------------------|
--7----L--15----L--7----|--5----7----8----12----|


   Q    E   S  S   E   E  E  E     Q      E   Q    E  Q     
--------------------------------|--------------------------|
--------------------------------|--------------------------|
--------------------------------|--------------------------|
--13----L--15-15h-17--15--3--5--|--8h-----L--15----L--8----|


  Q    E   Q    E  Q       Q    Q    Q     Q     
------------------------|-----------------------|
------------------------|-----------------------|
------------------------|-----------------------|
--3----L--15----L--3----|--5----7----8----12----|


   Q    E   S  S   E   E   E   E     Q      E   Q    E  Q     
----------------------------------|--------------------------|
----------------------------------|--------------------------|
----------------------------------|--------------------------|
--13----L--15-15h-17--15--17--15--|--8h-----L--15----L--8----|


  Q    E   Q    E  Q       Q    Q    Q     Q       Q    E   Q    E  Q     
------------------------|-----------------------|------------------------|
------------------------|-----------------------|------------------------|
------------------------|-----------------------|--8----L--20----L--8----|
--3----L--15----L--3----|--5----7----8----12----|------------------------|


  W                   W                   W                   W                 
-------------------|-------------------|-------------------|-------------------|
-------------------|-------------------|-------------------|-------------------|
--L----------------|--L----------------|-------------------|-------------------|
-------------------|-------------------|-------------------|-------------------|


  W                   W                   W                H        Q     
-------------------|-------------------|---------------------------------|
-------------------|-------------------|---------------------------------|
-------------------|-------------------|---------------------------------|
-------------------|-------------------|---------------------------------|


  W                H           W                   W                 
----------------------------|-------------------|-------------------|
----------------------------|-------------------|-------------------|
----------------------------|-------------------|-------------------|
----------------------------|-------------------|-------------------|


  W                   W                   W                 
-------------------|-------------------|-------------------|
-------------------|-------------------|-------------------|
-------------------|-------------------|-------------------|
-------------------|-------------------|-------------------|


  W                  
-------------------||
-------------------||
-------------------||
-------------------||




Duration Legend
---------------
W - whole
H - half
Q - quarter
E - 8th
S - 16th
T - 32nd
X - 64th
. - note dotted
|-n-|  - n-tuplets


Tablature Legend
----------------
L - tied note
x - dead note
g - grace note
(n) - ghost note
> - accentuded note
NH - natural harmonic
AH - artificial harmonic
TH - tapped harmonic
SH - semi harmonic
PH - pitch harmonic
h - hammer on
p - pull off
b - bend
br - bendRelease
pb - preBend
pbr - preBendRelease
brb - bendReleaseBend
\n/ - tremolo bar dip
\n - tremolo bar dive
-/n - tremolo bar Release up
/n\ - tremolo bar inverted dip
/n - tremolo bar return
-\n - tremolo bar Release down
S - shift slide
s - legato slide
/ -  slide into from below or out of upwards
\ -  slide into from above or out of downwards
~ - vibrato
W - wide vibrato
tr - trill
TP - tremolo picking
T - tapping
S - slap
P - pop
< - fade in
^ - brush up
v - brush down
            

comments powered by Disqus
↑ Back to top | Five For Fighting Bass for Superman. Lyrics for acoustic guitar and electric guitar. Tablatures and chords are parodies/interpretations of the original songs. You may use it for private study, scholarship, research or language learning purposes only