» » »

Superman Tabs (ver.1)

Artists:  A B C D E F G H I J K L M N O P Q R S T U V W X Y Z # 

Superman Tabs (ver.1)

Five For Fighting
Rating:
4/5 (15 votes)

Hard to play? Try these video lessons and learn fast.
                Intro      
 1 2 3 4  1 2 3 4  1 2 3 4  1 2 3 4      
|--------|--------|--------|--------|
|--11-3-3|--33311-|--11-3-3|--3-311-|
|--00-0-0|--00000-|--00-0-0|-0-0-00-|
|--------|--------|--------|--------|
|3-------|--------|0-------|--------|
|--------|3-------|--------|1-------|


Verse  
  C       G        A        F                         
|--------|--------|--------|--------|
|--11-3-3|--33311-|--11-3-3|--3-311-|
|--00-0-0|--00000-|--00-0-0|-0-0-00-|
|--------|-2------|--------|--------|
|3-------|--------|0-------|--------|
|--------|3-------|--------|1-------|
 I can’t stand…    I’m not that naïve…

|--------|--------|--------|------0-|
|---1---3|--33311-|--11-3-3|-----1--|
|--0--0--|--00000-|--00----|----2---|
|-2------|-2------|-2------|---3----|
|3-------|--------|0-------|-13-----|
|--------|3-------|--------|1-------|
I’m just…                       I’m more than a bird…      

Chorus
|--------|--------|--------|--------|
|---1----|---3----|---1----|---1—---|
|--0--0--|--0--0--|--2--2--|--2--2--|
|-2-----2|-------0|-2-----2|-------3|
|3-------|-2------|0-------|-3------|
|--------|3-------|--------|1-------|
         plane…     pretty face…           

                              
|--------|------0-|1-------|
|---1----|--------|1-------|
|--0--0--|--------|2-------|
|-2-----2|--0-----|3-------|
|3-------|-2-2-3--|3-------|
|--------|3---1---|1-------|

Verse
|--------|--------|--------|--------|
|--11-3-3|--33311-|--11-3-3|--3-311-|
|--00-0-0|--00000-|--00-0-0|-0-0-00-|
|--------|-2------|--------|--------|
|3-------|--------|0-------|--------|
|--------|3-------|--------|1-------|
 Wish that…        And fall upon…                    

|--------|--------|--------|------0-|
|---1---3|--33311-|--11-3-3|-----1--|
|--0--0--|--00000-|--00----|----2---|
|-2------|-2------|-2------|---3----|
|3-------|--------|0-------|-13-----|
|--------|3-------|--------|1-------|
 Find a way…       home…       It may sound absurd…   


Chorus                            
|--------|--------|--------|--------|
|---1----|---3----|---1----|---1—---|
|--0--0--|--0--0--|--2--2--|--2--2--|
|-2-----2|-------0|-2-----2|-------3|
|3-------|-2------|0-------|-3------|
|--------|3-------|--------|1-------|

|--------|--------|--------|--------|
|---1----|---3----|---1----|---1—---|
|--0--0--|--0--0--|--2--2--|--2--2--|
|-2-----2|-------0|-2-----2|-------3|
|3-------|-2------|0-------|-3------|
|--------|3-------|--------|1-------|


|--------|------0-|1-------|
|---1----|--------|1-------|
|--0--0--|--------|2-------|
|-2-----2|--0-----|3-------|
|3-------|-2-2-3--|3-------|
|--------|3---1---|1-------|

Bridge

Am            C               G
Up, up and away...away from me
           F           Am                 F                     
It’s alright...you can all sleep sound tonight
     Am                 G               
I’m not crazy...or anything...

Verse
|--------|--------|--------|--------|
|--11-3-3|--33311-|--11-3-3|--3-311-|
|--00-0-0|--00000-|--00-0-0|-0-0-00-|
|--------|-2------|--------|--------|
|3-------|--------|0-------|--------|
|--------|3-------|--------|1-------|
 I can’t stand…    I’m not that naïve…

|--------|--------|--------|------0-|
|---1---3|--33311-|--11-3-3|-----1--|
|--0--0--|--00000-|--00----|----2---|
|-2------|-2------|-2------|---3----|
|3-------|--------|0-------|-13-----|
|--------|3-------|--------|1-------|
 Men weren’t…      clouds…     I’m more than a man…         


Chorus
|--------|--------|--------|--------|
|---1----|---3----|---1----|---1—---|
|--0--0--|--0--0--|--2--2--|--2--2--|
|-2-----2|-------0|-2-----2|-------3|
|3-------|-2------|0-------|-3------|
|--------|3-------|--------|1-------|


|--------|--------|--------|--------|
|---1----|---3----|---1----|---1—---|
|--0--0--|--0--0--|--2--2--|--2--2--|
|-2-----2|-------0|-2-----2|-------3|
|3-------|-2------|0-------|-3------|
|--------|3-------|--------|1-------|

Outro

|-------0|0-------|
|--------|1-------|
|--------|0-------|
|--0---3-|2-------|
|-2-2-3--|3-------|
|3---1---|--------|


I can't stand to fly
I'm not that naive
I'm just out to find
The better part of me

I'm more than a bird
I'm more than a plane
More than some pretty face beside a train
And it's not easy to be me

Wish that I could cry
Fall upon my knees
Find a way to lie
'Bout a home I'll never see

It may sound absurd
But don't be naive
Even heroes have the right to bleed
I may be disturbed
But won't you concede
Even heroes have the right to dream
It's not easy to be me

Up, up and away, away from me
Well it's alright
You can all sleep sound tonight
I'm not crazy or anything

I can't stand to fly
I'm not that naive
Men weren't meant to ride
With clouds between their knees

I'm only a man in a silly red sheet
Digging for kryptonite on this one way street
Only a man in a funny red sheet
Looking for special things inside of me, inside of me
Inside of me, yeah inside of me, inside of me

I'm only a man in a funny red sheet
I'm only a man looking for a dream
I'm only a man in a funny red sheet
And it's not easy
It's not easy to be me
            
Hard to play? Try these video lessons and learn fast. | Correct




comments powered by Disqus
↑ Back to top | Tablatures and chords are parodies/interpretations of the original songs. You may use it for private study, scholarship, research or language learning purposes only