» » »

100 Year Tabs (ver.6)

Artists:  A B C D E F G H I J K L M N O P Q R S T U V W X Y Z # 

100 Year Tabs (ver.6)

Five For Fighting
Rating:
4/5 (22 votes)

Hard to play? Try these video lessons and learn fast.
                Years            down one octave for easier play. ENJOY!
Tuning: EADGBE (Standard)
okay. this tab is a combination of all the tabs that i got online plus a little of my
own hearing. this is my first tab so go easy on me! 

Intro:
||---------3—-3---------------------------------------|
||-----------------0----1----------1--0--1--3---------|
||------0---------------0-------0-----------------0---|
||----------------------------------------------------|
||---------------------------3--------3--------3------|
||---3--------3------3--------------------------------|

||---------3--3---------------------------------------|
||-----------------0----1----------1--0--1--3--1--0---|
||------0---------------0-------0-----------------0---|
||---------------------------0--------0--------0------|
||---0--------0------0--------------------------------|
||----------------------------------------------------|

||------3-----3-----------------------------------0---|
||----------------3-----0----------0-----0--1--3------|
||---------0------0-----0-------0--------0--------0---|
||---------------------------2--------2--------2------|
||---2--------2------2--------------------------------|
||----------------------------------------------------|

||----------------------------------------------------|
||---------0--0---0-----0----------0--3-----3---------|
||------0-----0---0-----0-------2-----0-----------0---|
||---------------------------0--------------4---------|
||---0--------0------0-------------------5-----5------|
||----------------------------------------------------|

Verse I: (repeat intro in background)
I'm 15 for a moment
Caught in between 10 and 20
And I'm just dreaming
Counting the ways to where you are

Verse II: (repeat intro in background)
I'm 22 for a moment
She feels better than ever
And we're on fire
Making our way back from Mars

Chorus: (easier playing chords)
G     D                        C(add9)      
15... there's still time for you
         D         	    G   
Time to buy and time to lose
     C(add9)        Em7 D            C(add9)
15...there's never a wish better than this
                                                            
When you only got 100 years to live...

Main tune in background after chorus:
||---3-3—--3---3222--0---3-3-2-3----------------------|
||---3-3---3---3333--3---3-3-3-3----------------------|
||---0-0---0---0222------2-2-2-0----------------------|
||---0-2---2---2000--2---0-0-0-0----------------------|
||---2-3---3---3-----3--------(2)---------------------|
||----------------------------(3)---------------------|

OR

G/B	G5/C	D
G/B	C(add9)	GGDG	

Verse III: (play chords)
G         C
I'm 33 for a moment
Am7              D7sus
Still the man but you see I'm a they
G/B          Em
A kid on the way
Am7               Dsus
A family on my mind

||-------3—-3-------------------------------------------------|
||-------------0--1-----1--0--1--3----------------------------|
||----0--------------0----------------------------------------|
||------------------------------------------------------------|
||------------------------------------------------------------|
||-3----------------------------------------------------------|

||--------3--3------------------------------3----3------------|
||--------------0--1-----1--0--1--3--1--0------------3--0-----|
||--0--0--------------0-------------------0---0------0--0-----|
||------------------------------------------------------------|
||------------------------------------------------------------|
||------------------------------------------------------------|

||-----------------------0-------------------------------------|
||--------0-----0--1--3----------0---0—--0---0-----0--3--------|
||-----0-----0----------------0------0---0---0--2-----------0--|
||--2----------------------------------------------------4-----|
||-------------------------------------------------------------|
||-------------------------------------------------------------|

Verse IV: (play tabs above, slight variation from intro/or can just play the intro)
I'm 45 for a moment
The sea is high
And I'm heading into a crisis
Chasing the years of my life

Chorus: (easier to play chords)
G                  D     C(add9)
15... there's still time for you
G                  D     C(add9)        Em7
Time to buy and time to lose yourself
Dsus             C(add9)	
Within a morning star
C(add9)	

G     D                 C(add9)
15... I'm all right with you
D     C9(add9)         Em7 D         C(add9)
15... there's never a wish better than this

When you only got 100 years to live...

Bridge: (play chords)
C		  Dsus
Half time goes by
		     Em
Suddenly you're wise
			Fmaj7
Another blink of an eye
 	C(add9)
67 is gone
 			Dsus      
The sun is getting high
		G
We're moving on...

||---------3—-3---------------------------------------|
||-----------------0----1----------1--0--1--3---------|
||------0---------------0-------0-----------------0---|
||----------------------------------------------------|
||---------------------------3--------3--------3------|
||---3--------3------3--------------------------------|

||---------3—-3---------------------------------------|
||-----------------0----1----------1--0--1--3---------|
||------0---------------0-------0-----------------0---|
||---------------------------0--------0--------0------|
||---0--------0------0--------------------------------|
||----------------------------------------------------|

come in for verse V
||---------3—-3---------------------------------------|
||-----------------0----1----------1--0--1--3---------|
||------0---------------0-------0-----------------0---|
||----------------------------------------------------|
||---------------------------3--------3--------3------|
||---3--------3------3--------------------------------|

||---------3--3---------------------------------------|
||-----------------0----1----------1--0--1--3--1--0---|
||------0---------------0-------0-----------------0---|
||---------------------------0--------0--------0------|
||---0--------0------0--------------------------------|
||----------------------------------------------------|

||------3-----3-----------------------------------0---|
||----------------3-----0----------0-----0--1--3------|
||---------0------0-----0-------0--------0--------0---|
||---------------------------2--------2--------2------|
||---2--------2------2--------------------------------|
||----------------------------------------------------|

||----------------------------------------------------|
||---------0--0---0-----0----------0--3-----3---------|
||------0-----0---0-----0-------2-----0-----------0---|
||---------------------------0--------------4---------|
||---0--------0------0-------------------5-----5------|
||----------------------------------------------------|

Verse V: (play tabs above)
I'm 99 for a moment
Dying for just another moment
And I'm just dreaming
Counting the ways to where you are

Additional part?: (play chords)
G           D         		C(add9)
15... there's still time for you
      D            G
22... I feel her too
      D                C(add9)
33... you're on your way
        D           
Every Day's a new Day

G		D	
Woohooohoooohoohoohooooo
Em7		C(add9)
Woohooohoooohoohoohooooo
G		D	
Woohooohoooohoohoohooooo
Em7		C(add9)
Woohooohoooohoohoohooooo

G         D                   Em7  
15... there's still time for you
          C(add9)
Time to buy and time to choose
G         D                Em7 D           C(add9)
Hey 15... there's never a wish better than this

When you only got 100 years to live

Outro: 
||---------3—-3---------------------------------------|
||-----------------0----1----------1--0--1--3---------|
||------0---------------0-------0-----------------0---|
||----------------------------------------------------|
||---------------------------3--------3--------3------|
||---3--------3------3--------------------------------|

||---------3—-3---------------------------------------|
||-----------------0----1----------1--0--1--3---------|
||------0---------------0-------0---------------------|
||---------------------------0------------------------|
||---0--------0------0--------------------------------|
||----------------------------------------------------|
            
Hard to play? Try these video lessons and learn fast. | Correct




comments powered by Disqus
↑ Back to top | Tablatures and chords are parodies/interpretations of the original songs. You may use it for private study, scholarship, research or language learning purposes only