» » »

The Tragic Truth Bass tabs (ver.1)

Artists:  A B C D E F G H I J K L M N O P Q R S T U V W X Y Z # 

The Tragic Truth Bass tabs (ver.1)

Five Finger Death Punch
Rating:
0/5 (0 votes)
Tabs too difficult? Try these video lessons and learn fast.
                PART 1                     PART 2
G|-----------------|      G|--------------------------------------------|
D|-----------------|      D|--------------------------------------------|
A|2~~0---0H3~~0H5~~|      A|-2~~222220-------  0H3~~33333-0H5~5~5~~-----|
E|----H3~~---------|      E|--------- H3~~33333-------------------------|
B|-----------------|X7    B|--------------------------------------------|X4
PART 3
G|---------------------------------------------|     
D|---------------------------------------------|    
A|-2~2222222-----------------------5~~5555555--|    
E|-----------3~3333333--5~~5555555-------------|    
B|---------------------------------------------|X4   
D

PART1 X7
PART2 X4
PART3 X3

G|---------------------|
D|---------------------|
A|2~~~~----------5~~~~-|
E|-----3~~~~5~~~~------|
B|---------------------|x2
----------------------------SOLO PART-------------------------------|
G|---------------|G|-----------------------------||-----------------|
D|---------------|D|-----------------------------||-----------------|
A|FOLO THE DRUMS-|A|-----------------------------||------------55555|
E|5555-555(X8)---|E|33333~~33333~~~55555~55555~X3||33333~~33333-----|
B|---------------|B|-----------------------------||-----------------|
              ON THE LAST 1 DONT LET IT  RING AS U SWITCH TO THE 3


G|---------------------------------------------||-----------------------|
D|---------------------------------------------||-----------------------|    
A|-2~2222222-----------------------5~~5555555--||2~~~~----------5~~~~---|    
E|-----------3~3333333--5~~5555555-------------||-----3~~~~5~~~~--------|    
B|---------------------------------------------||-----------------------| 
                                        < ALL AS ONE>X3

G|-------------------|
D|-------------------|
A|2~22----------5~55-|
E|----3~33--5~55-----|  END ON THE 2
B|-------------------|X3
            
Tabs too difficult? Try these video lessons and learn fast.


comments powered by Disqus
↑ Back to top | Tablatures and chords are parodies/interpretations of the original songs. You may use it for private study, scholarship, research or language learning purposes only