» » »

Five Finger Death Punch, The Devils Own Tabs (ver.2)

Artists:  A B C D E F G H I J K L M N O P Q R S T U V W X Y Z # 

The Devils Own Tabs (ver.2)

Five Finger Death Punch Tabs
 Rating:
4/5 (4 votes)
The Devils Own lessons Tabs too difficult? Try these video lessons and learn fast
1
                -------------------------------------------------------------------------------
                        The Devil’s Own By Five Finger Death Punch
-------------------------------------------------------------------------------

Tuning: Put it in Drop D then every string goes down a whole step.
I think its called Drop B tuning.
Also, look at the intro part, and the side notes.
Those are the real notes.
The rest I had to take off, because the # was messing me up.
Also, this tab is only one of the guitars.
So this is obviously the easier one.
Im going to put the other guitar on in about a week or two.

INTRO

C#|-----------------------------------------------------------------------------|
G#|-----------------------------------------------------------------------------|
E|------------------------------------------------------------------------------|
B|------------------------------------------------------------------------------|
F#|-2-4b-----2-4b---------------------------------------------------------------|
B|------------------------------------------------------------------------------|

CHOURUS 2X

C|-----------------------------------------------------------------------------|
G|-----------------------------------------------------------------------------|
E|-----------------------------------------------------------------------------|
B|-----------------------------------------------------------------------------|
F|-0~~~-(000p)-0~~~-(000p)-3-x-2~-1--------------------------------------------|
B|-0~~~-(000p)-0~~~-(000p)-3-x-2~-1--------------------------------------------|


VERSE PT. 1 4X:

C|---------------------------------------------------------------------------|
G|---------------------------------------------------------------------------|
E|---------------------------------------------------------------------------|
B|---------------------------------------------------------------------------|
F|---------------------------------------------------------------------------|
B|-000-0-000-0-000-000-0-000-0-000-000-0-000-0-000-11-33-44-111-44-33-22-11--|

C|---------------------------------------------------------------------------|
G|---------------------------------------------------------------------------|
E|---------------------------------------------------------------------------|
B|---------------------------------------------------------------------------|
F|---------------------------------------------------------------------------|
B|-44-33-22-11---------------------------------------------------------------|


VERSE PT. 2 4X:

C|-----------------------------------------------------------------------------|
G|-----------------------------------------------------------------------------|
E|-----------------------------------------------------------------------------|
B|-----------------------------------------------------------------------------|
F|-----------------------------------------------------------------------------|
B|-0-(0000p)-0-(0000p)-0-(0000p)-4-3-1--2-(0000p)-2-(0000p)-3-(0000p)(431p)----|


BRIDGE PT 1 7X:

C|---------------------------------------------------------------------------|
G|---------------------------------------------------------------------------|
E|---------------------------------------------------------------------------|
B|---------------------------------------------------------------------------|
F|---------------------------------------------------------------------------|
B|-00000~~~-00000~~~---------------------------------------------------------|


BRIDGE PT. 2 (BASICLLY SAME THING AS 1 JUST DONT LET THE TONE OF THE STRING KEEP GOING)

C|---------------------------------------------------------------------------|
G|---------------------------------------------------------------------------|
E|---------------------------------------------------------------------------|
B|---------------------------------------------------------------------------|
F|---------------------------------------------------------------------------|
B|-00000-00000---------------------------------------------------------------|


BRIDGE PT. 3 (THIS ONE, AGAIN, YOU DONT WANT THE TONE OF THE STRING TO KEEP GOING.
THE FIRST FOUR ZEROS ARE WITH THE SNARE DRUMN, THEN DO FOUR AGAIN AFTER THE SNARE DRUMN.)

C|---------------------------------------------------------------------------|
G|---------------------------------------------------------------------------|
E|---------------------------------------------------------------------------|
B|---------------------------------------------------------------------------|
F|---------------------------------------------------------------------------|
B|-00000-00000-00000-00000---------------------------------------------------|


PRE CHORUS:

C|---------------------------------------------------------------------------|
G|---------------------------------------------------------------------------|
E|---------------------------------------------------------------------------|
B|---------------------------------------------------------------------------|
F|---------------------------------------------------------------------------|
B|-000-000-0-000-000-000-0-000-----------------------------------------------|


END NOTE (JUST DO THIS TILL IVAN STOPS SCREAMING.)

C|-----------------------------------------------------------------------------|
G|-----------------------------------------------------------------------------|
E|-----------------------------------------------------------------------------|
B|-----------------------------------------------------------------------------|
F|-0~~~~~----------------------------------------------------------------------|
B|-0~~~~~----------------------------------------------------------------------|

For verse part one, you are going to want to go:
down, up, down, down, down, up, down, down, down, up, down, down, up, down
For when you strum. Its what i did i thought it ould help.


Forr the bridge, you just go:
down, up, down, up, down, then do it again untill the pre chorus come up.

KEY:

~ = Keep that tone of the guitar after its strum, or also known as the vibration
b = Bend
p = Palm

Side note:
The order of the song is...

Intro
Chorus
Verse pt. 1 & 2
Chorus
Verse pt. 1 & 2
Bridge
Pre verse
Verse pt. 2
Chorus
End note

Another side note:
Or if you would like the tabs in order.
I can send you a copy of them in order.
If you also need more instructions, kinda like step by step.
I will also do that.
Thanks for looking
            
Submit corrections

comments powered by Disqus
↑ Back to top | Five Finger Death Punch Tabs for The Devils Own. Lyrics for acoustic guitar and electric guitar. 1 Tablatures and chords are parodies/interpretations of the original songs. You may use it for private study, scholarship, research or language learning purposes only