» » »

Meet The Monster Tabs (ver.2)

Artists:  A B C D E F G H I J K L M N O P Q R S T U V W X Y Z # 

Meet The Monster Tabs (ver.2)

Five Finger Death Punch
Rating:
0/5 (0 votes)

Hard to play? Try these video lessons and learn fast.
                (Intro)
Meet the Monster
tuned to drop B
v=virbrato
p=pull off
h=hammer on

First guitar
C#/------------------------------------------------------------------------|
G#/------------------------------------------------------------------------|
E/-------------------------------------------------------------------------|
B/-------------------------------------------------------------------------|
F#/00--00--00--00--00--00--00--00--00--00----------------------------------|
B/-00--00--00--00--00--00--00--00--00--00----------------------------------|
0:01                                                          0:12
Second guitar
0:12
C#/------------------------------------------------------------------------|
G#/------------------------------------------------------------------------|
E/-------------------------------------------------------------------------|
B/-----------------7-6h7p6-6----------------------7-6h7p6-6----------------|
F#/00--5--00--8--0--------8-8-7---00--5--00--8--0--------8-8-7v------------|
B/-00-----00-----0----------------00-----00-----0--------------------------|

Firt guitar
C#/------------------------------------------------------------------------|
G#/------------------------------------------------------------------------|
E/-------------------------------------------------------------------------|
B/-------------------------------------------------------------------------|
F#/00---00---00---00---00---00---00---00---00------------------------------|
B/-00---00---00---00---00---00---00---00---00------------------------------|

If your playing Second guitar play this in beat with the opens on the First guitar. If 
Second guitar play 9 opens like the tab says.
play 4 times
            
Hard to play? Try these video lessons and learn fast. | Correct




comments powered by Disqus
↑ Back to top | Tablatures and chords are parodies/interpretations of the original songs. You may use it for private study, scholarship, research or language learning purposes only