» » »

Five Finger Death Punch, Meet The Monster Tabs (ver.1)

Artists:  A B C D E F G H I J K L M N O P Q R S T U V W X Y Z # 

Meet The Monster Tabs (ver.1)

Five Finger Death Punch Tabs
 Rating:
4/5 (4 votes)
Meet The Monster lessons Tabs too difficult? Try these video lessons and learn fast
                Meet the Monster by Five Finger Death Punch 
The Way of The Fist
Drop B (low to high B F# B E G# C#)

Main Riff 
Guitar 1
C#-------------------------------------------------------------------------|
G#-------------------------------------------------------------------------|
E--------------------------------------------------------------------------|
B--------------------------------------------------------------------------|
F#-00--00--00--00--00--00--00--00--00--00----------------------------------|
B--00--00--00--00--00--00--00--00--00--00----------------------------------|

Guitar 2 comes in on second time of guitar 1
C#-------------------------------------------------------------------------|
G#-------------------------------------------------------------------------|
E--------------------------------------------------------------------------|
B------------------7-6h7p6-6----------------------7-6h7p6------------------|
F#-00--5--0-7-8--0--------8-8-7--00--5--0-—7-8-0----------8-7b-------------|
B--00-----0------0---------------00-----0------0---------------------------|
(listen to the song as you play this. It doesn’t sound right at first but it is)
Play 4x

Verse (2x) both guitars
C#-------------------------------------------------------------------------|
G#-------------------------------------------------------------------------|
E--------------------------------------------------------------------------|
B--------------------------------------------------------------------------|
F#-00-00001-0-0-0-----------------0-0-00001-0-0-0--------------------------|
B--00-00001-0-0-0-7-6-3-6-3-2-3---0-0-00001-0-0-0-7-6-3-6-3-2b~------------|
PM    ----                            ----    

Chorus 
Guitar 1
C#--------------------------------------------------------------------|
G#--------------------------------------------------------------------|
E---------------------------------------------------------------------|
B---------------------------------------------------------------------|
F#--00000-00000-000-00000-00000-000-33333-33333-333-55555-55555-555---|
B---00000-00000-000-00000-00000-000-33333-33333-333-55555-55555-555---|
PM  ----- ----- --- ----- ----- --- ----- ----- --- ----- ----- ---

Guitar 2
C#---------------------------------------------------------------------|
G#----------------------------3----------------------------------------|
E------------------------------2---------------------------------------|
B---0---------------------------0---3---------------5------------------|
F#--0-------------------------------3---------------5------------------|
B---0-------------------------------3---------------5------------------|

Play 3x then on fourth


Guitar 1
C#------------------------------------------------------|
G#------------------------------------------------------|
E-------------------------------------------------------|
B-----------------------------------------------------5-|
F#--00000-00000-000-00000-00000-000-33333-33333-3333--5-|
B---00000-00000-000-00000-00000-000-33333-33333-3333--5-|
PM  ----- ----- --- ----- ----- --- ----- ----- ----


Guitar 2
C#------------------------------------------------------|
G#----------------------------3-------------------------|
E------------------------------2------------------------|
B---0---------------------------0---3----------------5--|
F#--0-------------------------------3----------------5--|
B---0-------------------------------3----------------5--|

Back to Main Riff, then Verse, then Chorus, then Main Riff again

Breakdown
Guitar 1 (with maybe chorus pedal and less distortion)
C#-----------------------------------------------------------------|
G#-----------------------------------------------------------------|
E------------------------------------------------------------------|
B------------------7-6---6---------------10--12-10-9-9h10p9--------|
F#--0-0-5---7-8--------8----8-7-8-8-8/12-------------------12-10---|
B---0-----0--------------------------------------------------------|

Guitar 2
C#-----------------------------------------------------------------|
G#-----------------------------------------------------------------|
E------------------------------------------------------------------|
B------------------------------------------------------------------|
G#--0-----------------------------3--------------------------------|
B---0-----------------------------3--------------------------------|
  
(2x)
      this is 3x                  on 4th
C#-------------------------|---------------------------|
G#-------------------------|---------------------------|
E--------------------------|-------------5-------------|
B------5-7-----8-7-5-7-----|------5-7-------8-7-5------|
G#-------------------------|---------------------------|
B---0-------0--------------|---0-------0---------------|
PM  -       -                  -       -
(also doesnt sound right but try listening to it and playing)
           3x                      on 4th
C#-------------------------|---------------------------|
G#-------------------------|---------------------------|
E--------------------------|-------------5-------------|
B------5-7-----8-7-5-7-----|------5-7-------8-7--------|
G#-------------------------|---------------------------|
B---0-------0--------------|---0-------0---------5\----|
PM  -       -                  -       -


C#-------------------------------------|
G#-------------------------------------|
E--------------------------------------|
B-----------6-----------7-6---6--------|
F#----0-5-7---8-7-8---------8--8-7-8---|
B---0-----------------0----------------|
PM  - - - -           -

(4x)

Verse (7x)

Ends on

C#-------------------------|
G#-------------------------|
E--------------------------|
B----0---------------------|
F#---0---------------------|
B----0---------------------|
            
Submit corrections

comments powered by Disqus
↑ Back to top | Five Finger Death Punch Tabs for Meet The Monster. Lyrics for acoustic guitar and electric guitar. Tablatures and chords are parodies/interpretations of the original songs. You may use it for private study, scholarship, research or language learning purposes only