» » »

Five Finger Death Punch, Hate Me Tabs (ver.1)

Artists:  A B C D E F G H I J K L M N O P Q R S T U V W X Y Z # 

Hate Me Tabs (ver.1)

Five Finger Death Punch Tabs
Rating:
0/5 (0 votes)
Hate Me lessons Tabs too difficult? Try these video lessons and learn fast
                
OK. I couldn't find a tab at all for this song, so I figured it out by ear. I know it's 
perfect. And sorry about not putting in the palm mutes, but they're easy to figure out.

Tuning: Drop B

Intro

e|---------------------------------------------------------------------------|
B|------------------------1-1-1-1--------------------------------------------|
G|------------------------0-0-0-0--------------------------------------------|
D|---------------------------------------------------------------------------|
A|-0-0-0-0-0-0-0-0-0-0-0-----------------------------------------------------|
E|-0-0-0-0-0-0-0-0-0-0-0-----------------------------------------------------|


Verse pt 1
play this twice, then they play it again, but they pick the notes real fast.

e|---------------------------------------------------------------------------|
B|---------------------------------------------------------------------------|
G|---------------------------------------------------------------------------|
D|---------------------------------------------------------------------------|
A|-5--5-5-5--2--2-2-2--8--8-8-8--7-7-7---------------------------------------|
E|-5--5-5-5--2--2-2-2--8--8-8-8--7-7-7---------------------------------------|

Verse pt 2
e|---------------------------------------------------------------------------|
B|---------------------------------------------------------------------------|
G|---------------------------------------------------------------------------|
D|-7-7h8-5-7-7h8-3-7-7h8--8h10-10-10-8-7-8-----------------------------------|
A|-0-0-0-0-0-0-0-0-0-0-0--0--0--0--0-0-0-0-----------------------------------|
E|---------------------------------------------------------------------------|

I tried to figure out the sweeps at the start of the solo but I can't do it. So here is the rest.

e|---------------------------------------------------------------------------|
B|---------------------------------------------------------------------------|
G|-10~-10-12-13b-13-12-10~-12-13-15b-15-13-12~-13-15-17-17b-15-13~-----------|
D|---------------------------------------------------------------------------|
A|---------------------------------------------------------------------------|
E|---------------------------------------------------------------------------|

e|-------------------------------------------------------------------------------|
B|-------------------------------------------------------------------------------|
G|-13-15-17-15-10~-11~-----------------------------------------------------------|
D|---------------------11~-13~-11~-13~-11~-13~-----------------------------------|
A|------------------------------------------0------------------------------------|
E|-------------------------------------------------------------------------------|

| /  slide up
| \  slide down
| h  hammer-on
| p  pull-off
| ~  vibrato
| +  harmonic
| x  Mute note
| b  bend
            
Submit corrections

comments powered by Disqus
↑ Back to top | Five Finger Death Punch Tabs for Hate Me. Lyrics for acoustic guitar and electric guitar. Tablatures and chords are parodies/interpretations of the original songs. You may use it for private study, scholarship, research or language learning purposes only