>
 >
Hard To See 5

Hard To See 5 Guitar Tabs

Five Finger Death Punch - Hard To See 5 chords, tabs, tablatures, lyrics

Guitar lessons | Add/correct | Request | Top 50 tabs Artists:  A B C D E F G H I J K L M N O P Q R S T U V W X Y Z 0-9

Hard To See 5 Guitar Tabs – Five Finger Death Punch

CD, Sheet music, Poster

Do you like Hard To See 5? Share with your friends now
TabsTabs v2Tabs v3Tabs v4Tabs v5
The verse that I always see posted 
does not sound right to me. Heres 
my version. Also, I finally got 
tired of not seeing the solo for 
this song posted so here it is. 
It's tricky but very do-able. The 
first few and last few notes may 
not be accurate. Let 'er rip.
Tuning: B,F#,B,E,G#,C#

   Verse Riff -   Repeat
C#|------------------------------------------------------------------------|
G#|------------------------------------------------------------------------|
E |------------------------------------------------------------------------|
B |------------------------------------------------------------------------|
F#|-----3h5-----3h5-----3h5-----3h5-----3h5----3h5-----3h5-----------------|
B |-0-0-----0-0-----0-0-----3h5-----0-0-----0-0----3h5-----3h5-0-----------|
   Palm Mute_ _     _ _             _ _     _ _    


Solo Intro Riff                             Solo Intro 
C#|---------------------------------|----|---------------------------------|
G#|---------------------------------|----|---------------------------------|
E |---------------------------------|----|----------------------6b~~~~~~~~~|
B |---------------------------------|-x3-|---------------------------------|
F#|0-2-3---2-3---5~~~---------------|----|--3b--------5~~~~~~~~~-----------|
B |0-2-3-0-2-3-0-----0-0-0-00000000-|----|---------------------------------|
                 A.H.PM_ _ ________          A.H.      A.H.      A.H. 
Solo
C#|------------------------------------------------------------------------|
G#|------------------------------------------------------------------------|
E |------------------------------------------------------------------------|
B |-----3h5-5p3-5-5-5-5-5-5-5p3---3-------3---3-----3---3----5p3---3-------|
F#|--3h5------------------------5---5-5-5---5---5-5---5---5------5---------|
B |------------------------------------------------------------------------|
                Palm Mute _ _   _   _ _ _  A.H. _ _   A.H._    A.H.

C#|------------------------------------------------------------------10-13b|
G#|--------------------5h6p5---5-----------------------------------10------|
E |--------5---7---5-7-------7---9h10p9-------9-10-12----10-12-12b---------|
B |--3h5/7---7---7----------------------10-12---------12-------------------|
F#|5-----------------------------------------------------------------------|
B |------------------------------------------------------------------------|
                                          palm mute _  _  _  _  
  
C#|10------10--------------------------------------------------------------|
G#|-----10----13b-----10h11p10----10------------------------------15----18b|
E |--12------------------------12----12b-10----12----10h12~~~~~14----14----|
B |------------------------------------------12----12----------------------|
F#|------------------------------------------------------------------------|
B |------------------------------------------------------------------------|
                                     A.H.    

C#|-----------------------------/20-17-18----17-------17-18----17----------|
G#|15-------20-------20b------------------20----18-20-------20----20b~~~~~~|
E |---17/19----19-17-------------------------------------------------------|
B |------------------------------------------------------------------------|
F#|------------------------------------------------------------------------|
B |------------------------------------------------------------------------|
  
    Harmony Section   - played on top of each other
    First Harmony                      Second Harmony  
C#|-/17-13-15----13-------13---|-------|--20-17-18----17-------17--|-------|
G#|-----------17----15-17------|-------|-----------20----18-20-----|-------|
E |----------------------------|-------|---------------------------|-------|
B |----------------------------|--X2---|---------------------------|--X2---|
F#|----------------------------|-------|---------------------------|-------|
B |----------------------------|-------|---------------------------|-------|
  
   Single guitar
C#|/20-17-18---17-------17------17-----------------------------------------|
G#|----------20---18-20----18-20---18b~~~~15-18b---15h18p15-------20-------|
E |---------------------------------------------------------17/19----19\17-|
B |------------------------------------------------------------------------|
F#|------------------------------------------------------------------------|
B |------------------------------------------------------------------------|
   

C#|-17----15----17----18-17h18p17-------18-20-22----22-(22)b(24)-----------|
G#|-------------------------------18/20----------18------------------------|
E |----17----17----17------------------------------------------------------|
B |------------------------------------------------------------------------|
F#|------------------------------------------------------------------------|
B |------------------------------------------------------------------------|
                                                     Hold and bend 





Comments


Popular Five Finger Death Punch tabs & chords
Bulletproof Bass Tabs
Meet The Monster Bass Tabs
Bad Company Chords
Bad Company 1 Tabs
Meet The Monster Intro 1 Tabs
No One Gets Left Behind Tabs
Remember Everything 2 Tabs
Under And Over It Tabs
War Is The Answer Tabs
Undone Ukulele


Song lyrics



↑ Back to top | Tablatures and chords are parodies/interpretations of the original songs. You may use it for private study, scholarship, research or language learning purposes only
© 2014 AZChords.com Contact us | Privacy policy | DMCA | Add/correct tabs | Request tabs | Top 50 tabs