» » »

Hard To See Tabs (ver.2)

Artists:  A B C D E F G H I J K L M N O P Q R S T U V W X Y Z # 

Hard To See Tabs (ver.2)

Five Finger Death Punch
Rating:
0/5 (0 votes)

Hard to play? Try these video lessons and learn fast.
                I did this by ear, so it might well be wrong.

Drop B tuning ( B Gb B E Ab C# )

Intro/Chorus
Guitar 1
c#|---------------------------------------|
Ab|--------------------8=10---------------|
E |-7===========9=10===------7===========\|
B |---------------------------------------|
Gb|---------------------------------------|
B |---------------------------------------|

Guitar 2
c#|-----------------------------------------------------|
Ab|-----------------------------------------------------|
E |-----------------------------------------------------|
B |-0===========8===========5=xx5=xx5=xx5=xx5=xx5-------|
Gb|-0===========8===========5=xx5=xx5=xx5=xx5=xx5-------|
B |-0===========8===========5=xx5=xx5=xx5=xx5=xx5h7p5p0-|

Verse
Both guitars
c#|----------------------------------------------|
Ab|----------------------------------------------|
E |----------------------------------------------|
B |--------------------------------------3p0-----|
Gb|---3h5---3h5--3h5--3h5--3h5--3h5---3h5----3h5-|
B |-00----00---00---00---00---00---3h5-----------|
PM  --    --   --          --   --   

Chorus, see intro/chorus

Post Chorus
Both guitars
c#|---------------|
Ab|---------------|
E |---------------|
B |-0--3-3--------|
Gb|-0--3-3--------|
B |-0003030353023-|
PM   -- - -------

Bridge
Both Guitars
c#|---------------------|
Ab|---------------------|
E |---------------------|
B |---------------------|
Gb|--------/5-----------|
B |-0230230--0003530232-|

solo to come...

Order

Intro/Chorus x2
Verse x3 1/2,
Intro/Chorus x2
Post Chorus x3 1/2
Verse x4
Intro/Chorus x2
Post Chorus x3 1/2
Bridge x4
Solo x1 
Chorus x4
Bridge x3 1/2
            
Hard to play? Try these video lessons and learn fast. | Correct




comments powered by Disqus
↑ Back to top | Tablatures and chords are parodies/interpretations of the original songs. You may use it for private study, scholarship, research or language learning purposes only