» » »

Five Finger Death Punch, Death Before Dishonor Tabs (ver.1)

Artists:  A B C D E F G H I J K L M N O P Q R S T U V W X Y Z # 

Death Before Dishonor Tabs (ver.1)

Five Finger Death Punch Tabs
 Rating:
4/5 (4 votes)
Death Before Dishonor lessons Tabs too difficult? Try these video lessons and learn fast
1
                Tuning: Drop B

Intro Pt. 1 - Lead Guitar
|----------------------------------------|
|----------------------------------------|
|-16-----16/17-17-----17/14-14-----14/16-|
|----------------------------------------|
|----------------------------------------|
|----------------------------------------|

|----------------------------------------------------------------------|
|----------------------------------------------------------------------|
|-16hb-----(16)\14/16-16-----16/17-17-----17/14-----14/16-16hb---------|
|------------------------------------------------------------------/17-|
|----------------------------------------------------------------------|
|----------------------------------------------------------------------|

Intro Pt. 1 - Rhythm Guitar
|-----------------------------|
|-----------------------------|
|-----------------------------|
|-----------------------------|
|-5-5--5-5--5---5-5--5-5--5---|
|-3-3--3-3--3---3-3--3-3--3---|
  . .  . .  .   . .  . .  .

Intro Pt. 2 - Lead Guitar
|----------------------------------------------------------------------|
|----------------8-----------------------------------------------------|
|--------------------10--7-9-7--7----------------------------7---------|
|-7--7--7-9-10---------------------10--9-10-9-7--5-7---7-9-10--10-9-7--|
|-----------------------------------------------8----------------------|
|----------------------------------------------------------------------|
                                                       . .  .   . . .

|------------------------------------------------------------------------|
|----------------8-------------------------------------------------------|
|--------------------10--7-9-7--7-------------7-9-10-9---------7---------|
|-7--7--7-9-10---------------------10--9-10-9------------7-9-10--10-9-7--|
|------------------------------------------------------------------------|
|------------------------------------------------------------------------|
                                                         . .  .   . . .

Intro Pt. 2 - Rhythm Guitar
|-----------------------------------------|
|-----------------------------------------|
|-----------------------------------------|
|-7---------7---------7---------7---------|
|-7-----7-7-7-----7-7-7-----7-7-7-----7-7-|
|-5-----5-5-5-----5-5-5-----5-5-5-----5-5-|
        . .       . .       . .       . .

Main Riff - Both Guitars
|---------------------------------------------------|
|---------------------------------------------------|
|---------------------------------------------8--8--|
|-7----------7----------7----------7----------8--8--|
|-7----------7----------7----------7----------6--6--|
|-5--5-5-5-5-5--5-5-5-5-5--5-5-5-5-5--5-5-5-5-------|
     . . . .    . . . .    . . . .    . . . .

|------------------------------------------------------------|
|------------------------------------------------------------|
|------------------------------------------------------------|
|-7----------7----------7------------------------------------|
|-7----------7----------7---------7--7-6-5-4-6-5-4-3-5-4-3-2-|
|-5--5-5-5-5-5--5-5-5-5-5--5-5-5-----------------------------|
     . . . .    . . . .    . . .  .  . . . . . . . . . . . .

Verse - Both Guitars
|---------------------------------------------------------------|
|---------------------------------------------------------------|
|-------------------------8--8----------------------------------|
|-7-----7-----7-----7-----8--8--7-----7-----7-------------------|
|-7-----7-----7-----7-----6--6--7-----7-----7-----8-7-5-7-5-----|
|-5-5-5-5-5-5-5-5-5-5-5-5-------5-5-5-5-5-5-5-5-5-----------7-8-|
    . .   . .   . .   . .         . .   . .   . .

|---------------------------------------------------------------|
|---------------------------------------------------------------|
|-------------------------8--8----------------------------------|
|-7-----7-----7-----7-----8--8--7-----7-----7-------------------|
|-7-----7-----7-----7-----6--6--7-----7-----7-----8-7-5-7-5-----|
|-5-5-5-5-5-5-5-5-5-5-5-5-------5-5-5-5-5-5-5-5-5-----------7---|
    . .   . .   . .   . .         . .   . .   . .

Pre Chorus - Both Guitars
|---------------------------------------------------|
|---------------------------------------------------|
|---------------------------------------------8--8--|
|-7----------7----------7----------7----------8--8--|
|-7----------7----------7----------7----------6--6--|
|-5--5-5-5-5-5--5-5-5-5-5--5-5-5-5-5--5-5-5-5-------|
     . . . .    . . . .    . . . .    . . . .

|------------------------------------------------------------|
|------------------------------------------------------------|
|------------------------------------------------------------|
|-7----------7----------7------------------------------------|
|-7----------7----------7---------7--7-6-5-4-6-5-4-3-5-4-3-2-|
|-5--5-5-5-5-5--5-5-5-5-5--5-5-5-----------------------------|
     . . . .    . . . .    . . .

Chorus - Lead Guitar
|----------------------------------------------------------|
|-------------------------------------------------14fb-----|
|-14--16--17-----16--14-16---------------------------------|
|---------------------------17--14--16---------------------|
|------------------------------------------17--------------|
|----------------------------------------------------------|

|--------------------------------------------|
|--------------------------------------------|
|-------------------14fb---------------------|
|-15-----------------------------15----------|
|--------17-----------------------------17---|
|--------------------------------------------|

Chorus - Rhythm Guitar
|---------------------------------------------------------------------|
|---------------------------------------------------------------------|
|------------------5----7----------------------------5----7-----------|
|-5----5-----------5----7------7-7--5----5-----------5----7------7-7--|
|-5----5------5-5--3----5------5-5--5----5------5-5--3----5------5-5--|
|-3----3------3-3-------------------3----3------3-3-------------------|
              . .              . .              . .              . .

2nd Chorus - Lead Guitar
|----------------------------------------------|
|--------------14------------------------------|
|-14--16--17-------17-----16-----14--------14--|
|--------------------------------------17------|
|----------------------------------------------|

|---------------------------------------------------------------------------------|
|------------------------------15----------------------------------15------15-----|
|----------------14---16---17--------16-------(16)/--14--16--17----------17----17-|
|-14--16--17----------------------------------------------------------------------|
|---------------------------------------------------------------------------------|
|---------------------------------------------------------------------------------|

Last Chorus i'll post later
            
Submit corrections

comments powered by Disqus
↑ Back to top | Five Finger Death Punch Tabs for Death Before Dishonor. Lyrics for acoustic guitar and electric guitar. 1 Tablatures and chords are parodies/interpretations of the original songs. You may use it for private study, scholarship, research or language learning purposes only