» » »

Bulletproof Bass tabs (ver.1)

Artists:  A B C D E F G H I J K L M N O P Q R S T U V W X Y Z # 

Bulletproof Bass tabs (ver.1)

Five Finger Death Punch
Rating:
4/5 (1 vote)

Hard to play? Try these video lessons and learn fast.
                This is my first tab uploaded on here and it probably is quite bad but this what I 
play and to me it sounds fine.
Please note the interlude/solo part I have a hard time distinguishing quite what's 
going on so please feel free to do what you think is right there.

Tuning:

'Drop C': C,G,C,F

| ~  let ring
| /  slide up
| \  slide down
| h  hammer-on
| p  pull-off
| +  harmonic
| x  Mute note



(0:00-0:11) Intro:
C|-------------------------------------------------------------------|
F|-------------------------------------------------------------------|
G|--------5--------5--------5-67786---------5--------5--------5-67786| [x2]
C|00000000-00000000-00000000-------00000000-00000000-00000000--------|

(Little break, then vocals kicks in)

(0:13-0:24) Verse: "You can take the money..."
C|-------------------------------------------------------------------|
F|-------------------------------------------------------------------|
G|--------5--------5--------5-67786---------5--------5--------5-67786| [x2]
C|00000000-00000000-00000000-------00000000-00000000-00000000--------|

(0:26-0:38) Pre-Chorus: "You won't break me!"
F|----------------------|
C|----------------------|
G|----------------------| [x4]
C|4~4--4~4--4~4--4~4-000|

(0:39-0:50) 3Chorus: "All Ive learned"
F|-------------------------------------------------------------|
C|-------------------------------------------------------------|
G|----------------------------(Just spam this til next verse)--|
C|0000000000000000000000000000000000000000000000000000000000000|

(0:51-1:03) Verse: "You can keep the fortune..."
C|-------------------------------------------------------------------|
F|-------------------------------------------------------------------|
G|--------5--------5--------5-67786---------5--------5--------5-67786| [x2]
C|00000000-00000000-00000000-------00000000-00000000-00000000--------|

(Little break, then vocals kicks in)

(1:05-1:16)
C|-------------------------------------------------------------------|
F|-------------------------------------------------------------------|
G|--------5--------5--------5-67786---------5--------5--------5-67786| [x2]
C|00000000-00000000-00000000-------00000000-00000000-00000000--------|

(1:17-1:30) Pre-Chorus: "You won't break me!"
F|----------------------|
C|----------------------|
G|----------------------| [x4]
C|4~4--4~4--4~4--4~4-000|

(1:31-1:42) Chorus: "All Ive learned"
F|-------------------------------------------------------------|
C|-------------------------------------------------------------|
G|----------------------------(Just spam this til interlude)---|
C|0000000000000000000000000000000000000000000000000000000000000|

(1:43-2:21) Interlude:
F|-----------------------|
C|-----------------------| 
G|-----------------------| [Somthing like this all the way through]
C|00-2-0-2-00-2-0-2-00000|

(2:23-2:34) Pre-Chorus: "You won't break me!"
F|----------------------|
C|----------------------|
G|----------------------| [x4]
C|4~4--4~4--4~4--4~4-000|

(2:35-3:01)Chorus: "All Ive learned"
F|-------------------------------------------------------------|
C|-------------------------------------------------------------|
G|-----------------------(Just spam this til the outro thing)--| [x2]
C|0000000000000000000000000000000000000000000000000000000000000|

(3:02-3:16) Outro:
(No bass/vocals)
            
Hard to play? Try these video lessons and learn fast. | Correct




comments powered by Disqus
↑ Back to top | Tablatures and chords are parodies/interpretations of the original songs. You may use it for private study, scholarship, research or language learning purposes only