» » »

Bleeding Bass tabs (ver.4)

Artists:  A B C D E F G H I J K L M N O P Q R S T U V W X Y Z # 

Bleeding Bass tabs (ver.4)

Five Finger Death Punch
Rating:
5/5 (7 votes)

Hard to play? Try these video lessons and learn fast.
                This is a good way to play the song if you only have one bass and dont have a chance to
between songs.
-I had to spread the beats just to show when exactly to play a note, but its always 4/4

intro (bass comes in on second measure)
G|------------|--------------|-----------|-------|
D|------------|--------------|-----------|-------| x5
A|-3~---------|-3h5p3~--3-4-5|-----------|-------|
E|------------|--------------|-4~------45|6~-----|
   x  x  x  x   x   x   x   x  x  x  x  x x x x x

right before first verse
G|--------------|----------------|
D|--------------|----------------| x2
A|-33-xx-x33-xx-|-x33-xx-x3~-6~8~|
E|--------------|----------------|
   x  x  x   x    x   x  x   x

verse
G|------------|--------------|-----------|-------|
D|------------|--------------|-----------|-------| x2
A|-3~---------|-3h5p3~--3-4-5|-----------|-------|
E|------------|--------------|-4~------45|6~-----|
   x  x  x  x   x   x   x   x  x  x  x  x x x x x

G|---------|---------|---------|---------|
D|---------|---------|---------|---------| x2  Play the notes with the
A|-3-------|-3-------|---------|---------|     rhythm of the guitar.
E|---------|---------|-4-------|-6-------|
   x x x x   x x x x   x x x x   x x x x

chorus
G|--------------|----------------|
D|--------------|----------------| x2
A|-33-xx-x33-xx-|-x33-xx-x3~-6~8~|
E|--------------|----------------|
   x  x  x   x    x   x  x   x

verse
G|------------|--------------|-----------|-------|
D|------------|--------------|-----------|-------| x2
A|-3~---------|-3h5p3~--3-4-5|-----------|-------|
E|------------|--------------|-4~------45|6~-----|
   x  x  x  x   x   x   x   x  x  x  x  x x x x x

G|---------|---------|---------|---------|
D|---------|---------|---------|---------| x2  Same here, match rhythm with
A|-3-------|-3-------|---------|---------|     the guitar.
E|---------|---------|-4-------|-6-------|
   x x x x   x x x x   x x x x   x x x x

chorus
G|--------------|----------------|
D|--------------|----------------| x2
A|-33-xx-x33-xx-|-x33-xx-x3~-6~8~|
E|--------------|----------------|
   x  x  x   x    x   x  x   x

key change
G|---------|---------|---------|-------------|    Its a slower part, so if
D|---------|---------|---------|-------------| x2 you play a lighter beat
A|-3~------|---------|-6~------|-------------|    you can improvise over this
E|---------|-3~------|---------|-6~----------|    part. I just throw transitions
   x x x x   x x x x   x x x x   x x x x      between the notes.

chorus
G|--------------|----------------|
D|--------------|----------------| x4
A|-33-xx-x33-xx-|-x33-xx-x3~-6~8~|
E|--------------|----------------|
   x  x  x   x    x   x  x   x

outro
pretty much all guitar, but you can play the notes from the intro and verses if 
you want to improvise.

Once you get it down it really isnt that hard of a song to play. Also, it sounds better
all strings tuned down a whole step.

-Jester
            
Hard to play? Try these video lessons and learn fast. | Correct




comments powered by Disqus
↑ Back to top | Tablatures and chords are parodies/interpretations of the original songs. You may use it for private study, scholarship, research or language learning purposes only