>
 >
Ashes

Ashes Guitar Tabs

Five Finger Death Punch - Ashes chords, tabs, tablatures, lyrics

Guitar lessons | Add/correct | Request | Top 50 tabs Artists:  A B C D E F G H I J K L M N O P Q R S T U V W X Y Z 0-9

Ashes Guitar Tabs – Five Finger Death Punch

CD, Sheet music, Poster

Do you like Ashes? Share with your friends now
Bass TabsTabs
#------------------------------------------------------------------------------##

                                      ASHES
                     As recorded by Five Finger Death Punch
                    (From the 2007 Album THE WAY OF THE FIST)


Gtr I (B E A D F# B) - 'Guitar I'
Gtr II (B E A D F# B) - 'Guitar II'
Gtr III (B E A D F# B) - 'Solo Guitar'

I got allot of help from the GuitarPro version of this song but I had to 
change some of the solo. Enjoy!

   Intro
    Q=180
   4/4
    Gtr I
    PM      PM      PM        PM
    E  E  E E  E  E E  E    E E  E  Q   E  E  E
||-----------------------|----------------------|
||o----------------------|----------------------|
||----12\11---11/12---12\|=11---11/14--14-12-11-|
||-----------------------|----------------------|
||o----------------------|----------------------|
||--0-------0-------0----|----0-----------------|
|
|   Gtr II
|   PM      PM      PM        PM        PM-------
|   E  E  E E  E  E E  E    E E  E  Q   E  E  E
||-----------------------|----------------------|
||o----------------------|----------------------|
||-----------------------|----------------------|
||-----------------------|----------------------|
||o---10\=9----9/10---10\|==9----9/10-----------|
||--0-------0-------0----|----0---------0--0--0-|


  PM      PM      PM        PM
  E  E  E E  E  E E  E    E E  E  Q   E  E  E
|----------------------|----------------------|
|----------------------|----------------------|
|---12\11---11/12---12\|=11---11/14--14-12-11-|
|----------------------|----------------------|
|----------------------|----------------------|
|-0-------0-------0----|----0-----------------|
|
|-|       PM      PM        PM        PM---|
| E  E  E E  E  E E  E    E E  E  Q   E  E  E
|----------------------|----------------------|
|----------------------|----------------------|
|----------------------|----------------------|
|----------------------|----------------------|
|---10\=9----9/10---10\|==9----9/10-----------|
|-0-------0-------0----|----0---------0--0--0-|


  PM      PM      PM        PM
  E  E  E E  E  E E  E    E E  E  Q   E  E  E
|----------------------|----------------------|
|----------------------|----------------------|
|---12\11---11/12---12\|=11---11/14--14-12-11-|
|----------------------|----------------------|
|----------------------|----------------------|
|-0-------0-------0----|----0-----------------|
|
| PM      PM      PM        PM        PM---|
| E  E  E E  E  E E  E    E E  E  Q   E  E  E
|----------------------|----------------------|
|----------------------|----------------------|
|----------------------|----------------------|
|----------------------|----------------------|
|---10\=9----9/10---10\|==9----9/10-----------|
|-0-------0-------0----|----0---------0--0--0-|


  1.
   Q.      Q.      Q      Q.      H         +E
|----------------------|-------------------------||
|----------------------|------------------------o||
|----------------------|-------------------------||
|----------------------|-------------------------||
|-15------14------12---|-14------15--------(15)-o||
|----------------------|-------------------------||
|
|     PM|     PM-----|       PM|     PM----|
|  Q  S S  Q. S S  S S    Q  S S  Q. S S S   S
|----------------------|-------------------------||
|----------------------|------------------------o||
|----------------------|-------------------------||
|----------------------|-------------------------||
|--7-------7-----------|--5-------5-------------o||
|--5--5-5--5--5-5--5-5-|--3--3-3--3--3-3-3---3---||


  2.
   S  S  S  S  E    E   E  E  E    E      S  S  S  S  E    E   E  E  E    E
|--------------------------------------|--------------------------------------|
|-------------17-----------------------|--------------------------------------|
|----------17------19--17-16-----------|----------16-17---16--14--------------|
|-------19-------------------19---17---|-------17----------------17-16---14---|
|----19--------------------------------|----17--------------------------------|
|-17-----------------------------------|-15-----------------------------------|
|
|              PM|            PM-----|                PM|            PM--------
|  Q           S S  Q.        S S  S S    Q           S S  Q.        S S  S S
|--------------------------------------|--------------------------------------|
|--------------------------------------|--------------------------------------|
|--------------------------------------|--------------------------------------|
|--------------------------------------|--------------------------------------|
|--7----------------7------------------|--5----------------5------------------|
|--5-----------5-5--5---------5-5--5-5-|--3-----------3-3--3---------3-3--3-3-|


  PM      PM      PM        PM
  E  E  E E  E  E E  E    E E  E  Q   E  E  E
|----------------------|------------------------|
|----------------------|------------------------|
|---12\11---11/12---12\|=11---11/14--14-12-11---|
|----------------------|------------------------|
|----------------------|------------------------|
|-0-------0-------0----|----0-------------------|
|
|-|       PM      PM        PM        PM---|
| E  E  E E  E  E E  E    E E  E  Q   E  E  E
|----------------------|------------------------|
|----------------------|------------------------|
|----------------------|------------------------|
|----------------------|------------------------|
|---10\=9----9/10---10\|==9----9/10-------------|
|-0-------0-------0----|----0---------0--0--0---|


   Verse
    Gtrs I, II
      PM--|   PM--|   PM----|   PM--|   PM
    E S S E E S S E E S S   E E S S E E E E E
||------------------------|-------------------|
||o-----------------------|-------------------|
||------------------------|-------------------|
||------------------------|-------------------|
||o-3-------3-------3-----|---3-------4---3/4-|
||--1-1-1-1-1-1-1-1-1-1-1-|-1-1-1-1-1-2-1-1/2-|


    PM--|   PM--|   PM----------|
  E S S E E S S E E S S   E E E E E E E E   4x
|-----------------------|-------------------||
|-----------------------|------------------o||
|-----------------------|-------------------||
|-----------------------|---------5-4-------||
|-3-------3-------3-----|-----2-3-----3-2--o||
|-1-1-1-1-1-1-1-1-1-1-1-|-0-5---------------||


   Chorus
    Gtr I
    Q.  Q.   Q     +Q   H.          Q.  Q.   Q     +Q    Q  Q  Q
||--------------|-----------------|-------------|-------------------|
||o-------------|-----------------|-------------|-------10--8-------|
||----------10--|-(10)--9---------|---------10--|-(10)---------9----|
||------7-------|-----------------|-----7-------|-------------------|
||o-7-----------|-----------------|-7-----------|-------------------|
||--------------|-----------------|-------------|-------------------|
|
|   Gtr II
|                             PM|                              PM|
|   W              +H.        E E   W              +H.         E E
||--------------|-----------------|-------------|-------------------|
||o-------------|-----------------|-------------|-------------------|
||--------------|-----------------|-------------|-------------------|
||--7-----------|--(7)------------|-7-----------|--(7)--------------|
||o-7-----------|--(7)--------7-7-|-7-----------|--(7)---------7-7--|
||--5-----------|--(5)--------5-5-|-5-----------|--(5)---------5-5--|


  Q.  Q.  Q    +Q   H.          Q.  Q.  Q    +Q       Q  Q  Q
|------------|----------------|------------|---------------------||
|---------6--|-(6)--5---------|---------6--|-(6)------8--6--5---o||
|------------|----------------|------------|---------------------||
|-----5------|----------------|-----5------|---------------------||
|-5----------|----------------|-5----------|--------------------o||
|------------|----------------|------------|---------------------||
|
|                         PM|
| W            +H.        E E   W                +W
|------------|----------------|------------|---------------------||
|------------|----------------|------------|--------------------o||
|------------|----------------|------------|---------------------||
|-5----------|-(5)------------|-5----------|-----(5)\------------||
|-5----------|-(5)--------5-5-|-5----------|-----(5)\-----------o||
|-3----------|-(3)--------3-3-|-3----------|-----(3)\------------||


 Pre-Verse
  Gtrs I, II
  PM--------------------------|
  E Q  E E Q  E   E Q  E E Q  E
|---------------|---------------|
|---------------|---------------|
|---------------|---------------|
|---------------|---------------|
|---------------|---------------|
|-0-0--0-0-0--0-|-0-0--0-0-0--0-|


    PM|    PM|   PM--|    PM|   PM   PM     PM|   PM|    PM--|   PM|    PM  PM
  E E E  E E E E E   E  E E E E E  E E    E E E E E E  E E   E E E E  E E E E
|------------------|-------------------|-------------------|------------------|
|------------------|-------------------|-------------------|------------------|
|-8-----10-----8---|---10-----8---10---|-10-----8-----10---|---8-----10---8---|
|-8-----10-----8---|---10-----8---10---|-10-----8-----10---|---8-----10---8---|
|-6------8-----6---|----8-----6----8---|--8-----6------8---|---6------8---6---|
|---0-0----0-0---0-|-0----0-0---0----0-|----0-0---0-0----0-|-0---0-0----0---0-|


    PM|    PM|   PM--|    PM|   PM   PM     PM|   PM|    PM--|   PM|    PM  PM
  E E E  E E E E E   E  E E E E E  E E    E E E E E E  E E   E E E E  E E E E
|------------------|-------------------|-------------------|------------------|
|------------------|-------------------|-------------------|------------------|
|------------------|-------------------|-------------------|------------------|
|-9-----10-----9---|---10-----9---10---|-10-----9-----10---|---9-----10---9---|
|-9-----10-----9---|---10-----9---10---|-10-----9-----10---|---9-----10---9---|
|-7-0-0--8-0-0-7-0-|-0--8-0-0-7-0--8-0-|--8-0-0-7-0-0--8-0-|-0-7-0-0--8-0-7-0-|

Verse
Chorus
Pre-Verse
Intro


 Solo (You will need a 27 fret guitar but if you don't, for the tapping part
 you can tap where the 27th fret would be. It's quite hard but it's not
 impossible)

  Gtr III
   H     H       +H      Q   Q     H     Q   Q     +Q    Q   Q   Q
|-------------|-----------------|---------------|-------------------|
|-------------|-----------------|---------------|---------------15--|
|-12----14----|-(14)----16--14--|-16----17--14--|-(14)--16--17--16--|
|-14----15----|-(15)----17--15--|-17----19--15--|-(15)--17--19------|
|-------------|-----------------|---------------|-------------------|
|-------------|-----------------|---------------|-------------------|


   H        E  E  Q        +H          Q   E  E
|----------------13b15--|-(13)pb15----17--------|
|-15b17----15-13--------|-----------------17-15-|
|-----------------------|-----------------------|
|-----------------------|-----------------------|
|-----------------------|-----------------------|
|-----------------------|-----------------------|


   Q.   Q.   Q     +Q    Q   Q   Q
|-15---13---17--|-(17)--19--20--22--|
|---------------|-------------------|
|---------------|-------------------|
|---------------|-------------------|
|---------------|-------------------|
|---------------|-------------------|


   T                 T                   T        T        T
   |--3--|  |--3--|  |--3--|  |--3--|    |--3--|  |--3--|  |--3--|  |--3--|
   E  E  E  E  E  E  E  E  E  E  E  E    E  E  E  E  E  E  E  E  E  E  E  E
|-24p20p17-15-17-20-24p20p17-15-17-20-|-24p20p17-25p20p17-24p20p17-15-17-20-|
|-------------------------------------|-------------------------------------|
|-------------------------------------|-------------------------------------|
|-------------------------------------|-------------------------------------|
|-------------------------------------|-------------------------------------|
|-------------------------------------|-------------------------------------|


   T                 T                   T        T        T
   |--3--|  |--3--|  |--3--|  |--3--|    |--3--|  |--3--|  |--3--|  |--3--|
   E  E  E  E  E  E  E  E  E  E  E  E    E  E  E  E  E  E  E  E  E  E  E  E
|-24p20p17-15-17-20-24p20p17-15-17-20-|-24p20p17-25p20p17-24p20p17-15-17-20----|
|-------------------------------------|----------------------------------------|
|-------------------------------------|----------------------------------------|
|-------------------------------------|----------------------------------------|
|-------------------------------------|----------------------------------------|
|-------------------------------------|----------------------------------------|


   E  E  E  E  E  E  E  E    E  E  E  E  E  E  E  E
|-24-20-20-20-27-20-20-20-|-24-20-20-20-27-20-19-22-|
|-------------------------|-------------------------|
|-------------------------|-------------------------|
|-------------------------|-------------------------|
|-------------------------|-------------------------|
|-------------------------|-------------------------|


                        ~~~~~~~~~~
   H        +E       E  Q     +W
|-27b29----(27)pb29-24-27--|-(27)----|
|--------------------------|---------|
|--------------------------|---------|
|--------------------------|---------|
|--------------------------|---------|
|--------------------------|---------|

Chorus


 Outro
  Gtr I
  PM      PM      PM        PM      PM----|
  E  E  E E  E  E E  E    E E  E  E E E E E   Q  H.
|----------------------|--------------------|----------*|
|----------------------|--------------------|----------*|
|---12\11---11/12---12\|=11---11/14---------|----------*|
|----------------------|--------------------|----------*|
|----------------------|--------------------|-2--------*|
|-0-------0-------0----|----0-------0-0-0-0-|-0--------*|
|
| Gtr II
| PM      PM      PM        PM      PM----|
| E  E  E E  E  E E  E    E E  E  E E E E E   Q  H.
|----------------------|--------------------|----------*|
|----------------------|--------------------|----------*|
|----------------------|--------------------|----------*|
|----------------------|--------------------|----------*|
|---10\=9----9/10---10\|==9----9/10---------|-2--------*|
|-0-------0-------0----|----0-------0-0-0-0-|-0--------*|


Duration Legend
---------------
W - whole; H - half; Q - quarter; E - 8th; S - 16th; T - 32nd; X - 64th; a - acciaccatura
+ - note tied to previous; . - note dotted; .. - note double dotted
Uncapitalized letters represent notes that are staccato (1/2 duration)
Irregular groupings are notated above the duration line
Duration letters will always appear directly above the note/fret number it represents the
duration for.  Duration letters with no fret number below them represent rests.  Multi-
bar rests are notated in the form Wxn, where n is the number of bars to rest for.  Low
melody durations appear below the staff

Tablature Legend
----------------
 h   - hammer-on
 p   - pull-off
 b   - bend
 pb  - pre-bend
 r   - bend release (if no number after the r, then release immediately)
 /\  - slide into or out of (from/to "nowhere")
 s   - legato slide
 S   - shift slide
  - natural harmonic
[n]  - artificial harmonic
n(n) - tapped harmonic
 ~   - vibrato
 tr  - trill
 T   - tap
 TP  - trem. picking
 PM  - palm muting
\n/  - tremolo bar dip; n = amount to dip
 \n  - tremolo bar down
 n/  - tremolo bar up
/n\  - tremolo bar inverted dip
 =   - hold bend; also acts as connecting device for hammers/pulls
 <>  - volume swell (louder/softer)
 x   - on rhythm slash represents muted slash
 o   - on rhythm slash represents single note slash

Misc Legend
-----------
 |  - bar
||  - double bar
||o - repeat start
o|| - repeat end
*|  - double bar (ending)
 :  - bar (freetime)
 $  - Segno
 &  - Coda
Tempo markers -  = BPM(8/16=s8/s16), where s8 = swing 8ths, s16 = swing 16ths


***************************************************************************************
***************************************************************************************





Comments


Popular Five Finger Death Punch tabs & chords
Far From Home Chords
Wrong Side Of Heaven Chords
Bleeding 5 Tabs
Canto 34 Tabs
Lift Me Up Tabs
Meet The Monster 2 Tabs
The Devils Own 2 Tabs
White Knuckles 3 Tabs
Remember Everything Ukulele
The Tragic Truth Ukulele


Song lyrics



↑ Back to top | Tablatures and chords are parodies/interpretations of the original songs. You may use it for private study, scholarship, research or language learning purposes only
© 2014 AZChords.com Contact us | Privacy policy | DMCA | Add/correct tabs | Request tabs | Top 50 tabs