» » »

Ashes Bass tabs (ver.1)

Artists:  A B C D E F G H I J K L M N O P Q R S T U V W X Y Z # 

Ashes Bass tabs (ver.1)

Five Finger Death Punch
Rating:
4/5 (1 vote)

Hard to play? Try these video lessons and learn fast.
                Tuning: Normal 5-string


X = Mute Note
~ = Let Ring

Drum Fill

Intro X2
g|-------------------------------------------------|
d|--0-0---0-0---0-0---0-2~--0---0------------------|
a|2-----2-----2-----2---------4--------------------|
e|-------------------------------------------------|
b|-------------------------------------------------|

g|-------------------------------------------------|
d|--0-0---0-0---0-0---0-4~--2----------------------|
a|2-----2-----2-----2---------5-4------------------|
e|-------------------------------------------------|
b|-------------------------------------------------|

g|-------------------------------------------------|
d|----------------------2~--0---0------------------|
a|--5-5---5-5---5-5---5-------4--------------------|
e|3-----3-----3-----3------------------------------|
b|-------------------------------------------------|

g|-------------------------------------------------|
d|-------------------------------------------------|
a|-------------------------------------------------|
e|-------------------------------------------------|
b|5-55-555--3-33-333-------------------------------|

Little guitar fill

Quick Bass transition into Verse 1(This is the only time you do this except for at the ending) X1

g|-------------------------------------------------|
d|-------------------------------------------------|
a|22--2222-----------------------------------------|
e|-------------------------------------------------|
b|-------------------------------------------------|

Verse 1 X4

g|-------------------------------------------------|
d|-------------------------------------------------|
a|---------------------------0-4-0-----------------|
e|-----------------------0-2-------0---------------|
b|0--0-0--0-0-0-0--0-0-0---------------------------|

Chorus X2

g|-------------------------------------------------|
d|-------------------------------------------------|
a|-------------------------------------------------|
e|0~------X-X-0~-----------------------------------|
b|--------------------X-X-1~------X-X-1~-----------|

Transition X1

g|-------------------------------------------------|
d|-------------------------------------------------|
a|-------------------------------------------------|
e|-------------------------------------------------|
b|00--000--000--000--------------------------------|

Verse 2 X1

g|------------------------------------------------------------------|
d|------------------------------------------------------------------|
a|------------------------------------------------------------------|
e|3-X3-X3-X3-X3-3--1-X1-X1-X1-X1-1---------------0--1-X1-X1-X1-X1-1-|
b|---------------------------------3-X3-X3-X3-X3--------------------|

Verse 1 X4

Chorus X2

Transistion X1

Verse 2 X2

Intro Riff X2

Play Chorus Riff During Guitar Solo X2

Chorus X2

Ending X1

g|-------------------------------------------------|
d|-------------------------------------------------|
a|22-2222------------------------------------------|
e|-------------------------------------------------|
b|-------0-----------------------------------------|

This is my first tab ever, and 5FDP NEEDS more tabs, so please correct and critisize, I 
will try and make more tabs once I get some feedback.
            
Hard to play? Try these video lessons and learn fast. | Correct




comments powered by Disqus
↑ Back to top | Tablatures and chords are parodies/interpretations of the original songs. You may use it for private study, scholarship, research or language learning purposes only