» » »

Skankin To The Beat Tabs (ver.1)

Artists:  A B C D E F G H I J K L M N O P Q R S T U V W X Y Z # 

Skankin To The Beat Tabs (ver.1)

Fishbone
Rating:
0/5 (0 votes)

Hard to play? Try these video lessons and learn fast.
                Simple but great song in 4/4. Standard EADGBE tuning.
-- Drum intro for 8 bars--
-- Main Riff - played through a load of times with a few modifications --
   |-x-5-x-5-x-5-x-5-x-3-x-3-x--8-x--8-|
   |-x-5-x-5-x-5-x-5-x-3-x-3-x--8-x--8-|
   |-x-6-x-6-x-6-x-6-x-4-x-4-x--9-x--9-| x3
   |-x-7-x-7-x-7-x-7-x-5-x-5-x-10-x-10-|
   |-x-7-x-7-x-7-x-7-x-5-x-5-x-10-x-10-|
   |-x-5-x-5-x-5-x-5-x-3-x-3-x--8-x--8-|

    |-x-5-x-5-x-5-x-5-x-3-3-3-3-3-3-3-|
    |-x-5-x-5-x-5-x-5-x-3-3-3-3-3-3-3-|
    |-x-6-x-6-x-6-x-6-x-4-4-4-4-4-4-4-| x1
    |-x-7-x-7-x-7-x-7-x-5-5-5-5-5-5-5-|
    |-x-7-x-7-x-7-x-7-x-5-5-5-5-5-5-5-|
    |-x-5-x-5-x-5-x-5-x-3-3-3-3-3-3-3-|
-- Bridge --
    |-x-5-x-5-x-5-x-5-x-5-x-5-x-5-x-5-|
    |-x-5-x-5-x-5-x-5-x-5-x-5-x-5-x-5-|
    |---------------------------------| x4
    |---------------------------------|
    |---------------------------------|
    |---------------------------------|

    |-x-x-x-x-x-x-x-x-x-x-x-x-x-x-x-x-|
    |-x-x-x-x-x-x-x-x-x-x-x-x-x-x-x-x-|
    |---------------------------------| x8 
    |---------------------------------|
    |---------------------------------|
    |---------------------------------|
-- Main Riff again --

This is my first tab so sorry if any of its wrong I think its right though.
            
Hard to play? Try these video lessons and learn fast. | Correct




comments powered by Disqus
↑ Back to top | Tablatures and chords are parodies/interpretations of the original songs. You may use it for private study, scholarship, research or language learning purposes only